  0
SECTION
  2
HEADER
  9
$ACADVER
  1
AC1015
  9
$ACADMAINTVER
 70
     6
  9
$DWGCODEPAGE
  3
ANSI_1252
  9
$INSBASE
 10
0.0
 20
0.0
 30
0.0
  9
$EXTMIN
 10
0.0
 20
0.0
 30
0.0
  9
$EXTMAX
 10
431.8
 20
279.4
 30
0.0
  9
$LIMMIN
 10
0.0
 20
0.0
  9
$LIMMAX
 10
431.8
 20
279.4
  9
$ORTHOMODE
 70
     0
  9
$REGENMODE
 70
     1
  9
$FILLMODE
 70
     1
  9
$QTEXTMODE
 70
     0
  9
$MIRRTEXT
 70
     1
  9
$LTSCALE
 40
1.0
  9
$ATTMODE
 70
     1
  9
$TEXTSIZE
 40
4.9388888889
  9
$TRACEWID
 40
1.0
  9
$TEXTSTYLE
  7
Standard
  9
$CLAYER
  8
0
  9
$CELTYPE
  6
ByLayer
  9
$CECOLOR
 62
   256
  9
$CELTSCALE
 40
1.0
  9
$DISPSILH
 70
     0
  9
$DIMSCALE
 40
1.0
  9
$DIMASZ
 40
5.1366373698
  9
$DIMEXO
 40
2.0
  9
$DIMDLI
 40
3.75
  9
$DIMRND
 40
0.0
  9
$DIMDLE
 40
0.0
  9
$DIMEXE
 40
2.0
  9
$DIMTP
 40
0.0
  9
$DIMTM
 40
0.0
  9
$DIMTXT
 40
7.0555555556
  9
$DIMCEN
 40
2.5
  9
$DIMTSZ
 40
0.0
  9
$DIMTOL
 70
     0
  9
$DIMLIM
 70
     0
  9
$DIMTIH
 70
     1
  9
$DIMTOH
 70
     1
  9
$DIMSE1
 70
     0
  9
$DIMSE2
 70
     0
  9
$DIMTAD
 70
     1
  9
$DIMZIN
 70
     0
  9
$DIMBLK
  1

  9
$DIMASO
 70
     1
  9
$DIMSHO
 70
     1
  9
$DIMPOST
  1

  9
$DIMAPOST
  1

  9
$DIMALT
 70
     0
  9
$DIMALTD
 70
     3
  9
$DIMALTF
 40
0.0393700787
  9
$DIMLFAC
 40
1.0
  9
$DIMTOFL
 70
     1
  9
$DIMTVP
 40
0.0
  9
$DIMTIX
 70
     0
  9
$DIMSOXD
 70
     0
  9
$DIMSAH
 70
     0
  9
$DIMBLK1
  1

  9
$DIMBLK2
  1

  9
$DIMSTYLE
  2
ISO-25
  9
$DIMCLRD
 70
     0
  9
$DIMCLRE
 70
     0
  9
$DIMCLRT
 70
     0
  9
$DIMTFAC
 40
1.0
  9
$DIMGAP
 40
2.0
  9
$DIMJUST
 70
     0
  9
$DIMSD1
 70
     0
  9
$DIMSD2
 70
     0
  9
$DIMTOLJ
 70
     0
  9
$DIMTZIN
 70
     0
  9
$DIMALTZ
 70
     0
  9
$DIMALTTZ
 70
     0
  9
$DIMUPT
 70
     0
  9
$DIMDEC
 70
     2
  9
$DIMTDEC
 70
     2
  9
$DIMALTU
 70
     2
  9
$DIMALTTD
 70
     3
  9
$DIMTXSTY
  7
Standard
  9
$DIMAUNIT
 70
     0
  9
$DIMADEC
 70
     2
  9
$DIMALTRND
 40
0.0
  9
$DIMAZIN
 70
     0
  9
$DIMDSEP
 70
    44
  9
$DIMATFIT
 70
     3
  9
$DIMFRAC
 70
     0
  9
$DIMLDRBLK
  1

  9
$DIMLUNIT
 70
     2
  9
$DIMLWD
 70
    -2
  9
$DIMLWE
 70
    -2
  9
$DIMTMOVE
 70
     0
  9
$LUNITS
 70
     2
  9
$LUPREC
 70
     2
  9
$SKETCHINC
 40
1.0
  9
$FILLETRAD
 40
10.0
  9
$AUNITS
 70
     0
  9
$AUPREC
 70
     2
  9
$MENU
  1
.
  9
$ELEVATION
 40
0.0
  9
$PELEVATION
 40
0.0
  9
$THICKNESS
 40
0.0
  9
$LIMCHECK
 70
     0
  9
$CHAMFERA
 40
0.0
  9
$CHAMFERB
 40
0.0
  9
$CHAMFERC
 40
0.0
  9
$CHAMFERD
 40
0.0
  9
$SKPOLY
 70
     0
  9
$TDCREATE
 40
2457679.585194954
  9
$TDUCREATE
 40
2457679.50186162
  9
$TDUPDATE
 40
2457679.585195486
  9
$TDUUPDATE
 40
2457679.501862153
  9
$TDINDWG
 40
0.0000000116
  9
$TDUSRTIMER
 40
0.0000000116
  9
$USRTIMER
 70
     1
  9
$ANGBASE
 50
0.0
  9
$ANGDIR
 70
     0
  9
$PDMODE
 70
     0
  9
$PDSIZE
 40
-1.0
  9
$PLINEWID
 40
0.0
  9
$SPLFRAME
 70
     0
  9
$SPLINETYPE
 70
     6
  9
$SPLINESEGS
 70
     8
  9
$HANDSEED
  5
3F0
  9
$SURFTAB1
 70
     6
  9
$SURFTAB2
 70
     6
  9
$SURFTYPE
 70
     6
  9
$SURFU
 70
     6
  9
$SURFV
 70
     6
  9
$UCSBASE
  2

  9
$UCSNAME
  2

  9
$UCSORG
 10
0.0
 20
0.0
 30
0.0
  9
$UCSXDIR
 10
1.0
 20
0.0
 30
0.0
  9
$UCSYDIR
 10
0.0
 20
1.0
 30
0.0
  9
$UCSORTHOREF
  2

  9
$UCSORTHOVIEW
 70
     0
  9
$UCSORGTOP
 10
0.0
 20
0.0
 30
0.0
  9
$UCSORGBOTTOM
 10
0.0
 20
0.0
 30
0.0
  9
$UCSORGLEFT
 10
0.0
 20
0.0
 30
0.0
  9
$UCSORGRIGHT
 10
0.0
 20
0.0
 30
0.0
  9
$UCSORGFRONT
 10
0.0
 20
0.0
 30
0.0
  9
$UCSORGBACK
 10
0.0
 20
0.0
 30
0.0
  9
$PUCSBASE
  2

  9
$PUCSNAME
  2

  9
$PUCSORG
 10
0.0
 20
0.0
 30
0.0
  9
$PUCSXDIR
 10
1.0
 20
0.0
 30
0.0
  9
$PUCSYDIR
 10
0.0
 20
1.0
 30
0.0
  9
$PUCSORTHOREF
  2

  9
$PUCSORTHOVIEW
 70
     0
  9
$PUCSORGTOP
 10
0.0
 20
0.0
 30
0.0
  9
$PUCSORGBOTTOM
 10
0.0
 20
0.0
 30
0.0
  9
$PUCSORGLEFT
 10
0.0
 20
0.0
 30
0.0
  9
$PUCSORGRIGHT
 10
0.0
 20
0.0
 30
0.0
  9
$PUCSORGFRONT
 10
0.0
 20
0.0
 30
0.0
  9
$PUCSORGBACK
 10
0.0
 20
0.0
 30
0.0
  9
$USERI1
 70
     0
  9
$USERI2
 70
     0
  9
$USERI3
 70
     0
  9
$USERI4
 70
     0
  9
$USERI5
 70
     0
  9
$USERR1
 40
0.0
  9
$USERR2
 40
0.0
  9
$USERR3
 40
0.0
  9
$USERR4
 40
0.0
  9
$USERR5
 40
0.0
  9
$WORLDVIEW
 70
     1
  9
$SHADEDGE
 70
     3
  9
$SHADEDIF
 70
    70
  9
$TILEMODE
 70
     1
  9
$MAXACTVP
 70
    64
  9
$PINSBASE
 10
0.0
 20
0.0
 30
0.0
  9
$PLIMCHECK
 70
     0
  9
$PEXTMIN
 10
1.0000000000E+20
 20
1.0000000000E+20
 30
1.0000000000E+20
  9
$PEXTMAX
 10
-1.0000000000E+20
 20
-1.0000000000E+20
 30
-1.0000000000E+20
  9
$PLIMMIN
 10
0.0
 20
0.0
  9
$PLIMMAX
 10
420.0
 20
297.0
  9
$UNITMODE
 70
     0
  9
$VISRETAIN
 70
     1
  9
$PLINEGEN
 70
     0
  9
$PSLTSCALE
 70
     1
  9
$TREEDEPTH
 70
  3020
  9
$CMLSTYLE
  2
Standard
  9
$CMLJUST
 70
     0
  9
$CMLSCALE
 40
20.0
  9
$PROXYGRAPHICS
 70
     1
  9
$MEASUREMENT
 70
     1
  9
$CELWEIGHT
370
    -1
  9
$ENDCAPS
280
     0
  9
$JOINSTYLE
280
     0
  9
$LWDISPLAY
290
     1
  9
$INSUNITS
 70
     4
  9
$HYPERLINKBASE
  1

  9
$STYLESHEET
  1

  9
$XEDIT
290
     1
  9
$CEPSNTYPE
380
     0
  9
$PSTYLEMODE
290
     1
  9
$FINGERPRINTGUID
  2
{B2F90183-ED04-4227-BF9F-FEEE52CE246E}
  9
$VERSIONGUID
  2
{FAEB1C32-E019-11D5-929B-00C0DF256EC4}
  9
$EXTNAMES
290
     1
  9
$PSVPSCALE
 40
0.0
  9
$OLESTARTUP
290
     0
  0
ENDSEC
  0
SECTION
  2
CLASSES
  0
CLASS
  1
ACDBDICTIONARYWDFLT
  2
AcDbDictionaryWithDefault
  3
ObjectDBX Classes
 90
        0
280
     0
281
     0
  0
CLASS
  1
VISUALSTYLE
  2
AcDbVisualStyle
  3
ObjectDBX Classes
 90
     4095
280
     0
281
     0
  0
CLASS
  1
MATERIAL
  2
AcDbMaterial
  3
ObjectDBX Classes
 90
     1153
280
     0
281
     0
  0
CLASS
  1
SCALE
  2
AcDbScale
  3
ObjectDBX Classes
 90
     1153
280
     0
281
     0
  0
CLASS
  1
TABLESTYLE
  2
AcDbTableStyle
  3
ObjectDBX Classes
 90
     4095
280
     0
281
     0
  0
CLASS
  1
MLEADERSTYLE
  2
AcDbMLeaderStyle
  3
ACDB_MLEADERSTYLE_CLASS
 90
     4095
280
     0
281
     0
  0
CLASS
  1
SUN
  2
AcDbSun
  3
SCENEOE
 90
     1153
280
     0
281
     0
  0
CLASS
  1
ACDBPLACEHOLDER
  2
AcDbPlaceHolder
  3
ObjectDBX Classes
 90
        0
280
     0
281
     0
  0
CLASS
  1
LAYOUT
  2
AcDbLayout
  3
ObjectDBX Classes
 90
        0
280
     0
281
     0
  0
ENDSEC
  0
SECTION
  2
TABLES
  0
TABLE
  2
VPORT
  5
8
330
0
100
AcDbSymbolTable
 70
     1
  0
VPORT
  5
29
330
8
100
AcDbSymbolTableRecord
100
AcDbViewportTableRecord
  2
*Active
 70
     0
 10
0.0
 20
0.0
 11
1.0
 21
1.0
 12
215.9
 22
139.7
 13
0.0
 23
0.0
 14
10.0
 24
10.0
 15
10.0
 25
10.0
 16
0.0
 26
0.0
 36
1.0
 17
0.0
 27
0.0
 37
0.0
 40
279.4
 41
1.5454545455
 42
50.0
 43
0.0
 44
0.0
 50
0.0
 51
0.0
 71
     0
 72
  2000
 73
     1
 74
     3
 75
     0
 76
     0
 77
     0
 78
     0
281
     0
 65
     1
110
0.0
120
0.0
130
0.0
111
1.0
121
0.0
131
0.0
112
0.0
122
1.0
132
0.0
 79
     0
146
0.0
  0
ENDTAB
  0
TABLE
  2
LTYPE
  5
5
330
0
100
AcDbSymbolTable
 70
     6
  0
LTYPE
  5
14
330
5
100
AcDbSymbolTableRecord
100
AcDbLinetypeTableRecord
  2
ByBlock
 70
     0
  3

 72
    65
 73
     0
 40
0.0
  0
LTYPE
  5
15
330
5
100
AcDbSymbolTableRecord
100
AcDbLinetypeTableRecord
  2
ByLayer
 70
     0
  3

 72
    65
 73
     0
 40
0.0
  0
LTYPE
  5
16
330
5
100
AcDbSymbolTableRecord
100
AcDbLinetypeTableRecord
  2
Continuous
 70
     0
  3
Solid line
 72
    65
 73
     0
 40
0.0
  0
LTYPE
  5
6E
330
5
100
AcDbSymbolTableRecord
100
AcDbLinetypeTableRecord
  2
HIDDEN
 70
     0
  3
Hidden __ __ __ __ __ __ __ __ __ __ __ __ __ __
 72
    65
 73
     2
 40
1.905
 49
1.27
 74
     0
 49
-0.635
 74
     0
  0
LTYPE
  5
6F
330
5
100
AcDbSymbolTableRecord
100
AcDbLinetypeTableRecord
  2
PHANTOM
 70
     0
  3
Phantom ______  __  __  ______  __  __  ______
 72
    65
 73
     6
 40
12.7
 49
6.35
 74
     0
 49
-1.27
 74
     0
 49
1.27
 74
     0
 49
-1.27
 74
     0
 49
1.27
 74
     0
 49
-1.27
 74
     0
  0
LTYPE
  5
70
330
5
100
AcDbSymbolTableRecord
100
AcDbLinetypeTableRecord
  2
CENTER
 70
     0
  3
Center ____ _ ____ _ ____ _ ____ _ ____ _ ____
 72
    65
 73
     4
 40
10.16
 49
6.35
 74
     0
 49
-1.27
 74
     0
 49
1.27
 74
     0
 49
-1.27
 74
     0
  0
LTYPE
  5
71
330
5
100
AcDbSymbolTableRecord
100
AcDbLinetypeTableRecord
  2
CENTERX2
 70
     0
  3
Center (2x) ________  __  ________  __  _____
 72
    65
 73
     4
 40
20.32
 49
12.7
 74
     0
 49
-2.54
 74
     0
 49
2.54
 74
     0
 49
-2.54
 74
     0
  0
LTYPE
  5
72
330
5
100
AcDbSymbolTableRecord
100
AcDbLinetypeTableRecord
  2
DOT2
 70
     0
  3
Dot (.5x) ........................................
 72
    65
 73
     2
 40
0.635
 49
0.0
 74
     0
 49
-0.635
 74
     0
  0
ENDTAB
  0
TABLE
  2
LAYER
  5
2
330
0
100
AcDbSymbolTable
 70
     3
  0
LAYER
  5
10
330
2
100
AcDbSymbolTableRecord
100
AcDbLayerTableRecord
  2
0
 70
     0
 62
     7
  6
Continuous
370
    -3
390
F
  0
LAYER
  5
73
330
2
100
AcDbSymbolTableRecord
100
AcDbLayerTableRecord
  2
SLD-0
 70
     0
 62
   179
  6
Continuous
370
    -3
390
F
  0
LAYER
  5
74
330
2
100
AcDbSymbolTableRecord
100
AcDbLayerTableRecord
  2
EBENE_1
 70
     0
 62
   179
  6
Continuous
370
    -3
390
F
  0
ENDTAB
  0
TABLE
  2
STYLE
  5
3
330
0
100
AcDbSymbolTable
 70
     3
  0
STYLE
  5
11
330
3
100
AcDbSymbolTableRecord
100
AcDbTextStyleTableRecord
  2
Standard
 70
     0
 40
0.0
 41
1.0
 50
0.0
 71
     0
 42
4.9388888889
  3
txt
  4

  0
STYLE
  5
96
330
3
100
AcDbSymbolTableRecord
100
AcDbTextStyleTableRecord
  2
SLDTEXTSTYLE0
 70
     0
 40
0.0
 41
0.605
 50
0.0
 71
     0
 42
4.9388888889
  3
TXT
  4

  0
STYLE
  5
16E
330
3
100
AcDbSymbolTableRecord
100
AcDbTextStyleTableRecord
  2
SLDTEXTSTYLE1
 70
     0
 40
0.0
 41
0.75
 50
0.0
 71
     0
 42
4.9388888889
  3
TXT
  4

  0
ENDTAB
  0
TABLE
  2
VIEW
  5
6
330
0
100
AcDbSymbolTable
 70
     0
  0
ENDTAB
  0
TABLE
  2
UCS
  5
7
330
0
100
AcDbSymbolTable
 70
     0
  0
ENDTAB
  0
TABLE
  2
APPID
  5
9
330
0
100
AcDbSymbolTable
 70
     1
  0
APPID
  5
12
330
9
100
AcDbSymbolTableRecord
100
AcDbRegAppTableRecord
  2
ACAD
 70
     0
  0
ENDTAB
  0
TABLE
  2
DIMSTYLE
  5
A
330
0
100
AcDbSymbolTable
 70
     1
100
AcDbDimStyleTable
  0
DIMSTYLE
105
27
330
A
100
AcDbSymbolTableRecord
100
AcDbDimStyleTableRecord
  2
ISO-25
 70
     0
 41
2.5
 42
0.625
 43
3.75
 44
1.25
 73
     0
 74
     0
 77
     1
 78
     8
140
2.5
141
2.5
143
0.0393700787
147
0.625
171
     3
172
     1
178
     0
271
     2
272
     2
274
     3
278
    44
283
     0
284
     8
340
11
  0
ENDTAB
  0
TABLE
  2
BLOCK_RECORD
  5
1
330
0
100
AcDbSymbolTable
 70
    25
  0
BLOCK_RECORD
  5
1F
330
1
100
AcDbSymbolTableRecord
100
AcDbBlockTableRecord
  2
*Model_Space
340
22
  0
BLOCK_RECORD
  5
1B
330
1
100
AcDbSymbolTableRecord
100
AcDbBlockTableRecord
  2
*Paper_Space
340
1E
  0
BLOCK_RECORD
  5
23
330
1
100
AcDbSymbolTableRecord
100
AcDbBlockTableRecord
  2
*Paper_Space0
340
26
  0
BLOCK_RECORD
  5
75
330
1
100
AcDbSymbolTableRecord
100
AcDbBlockTableRecord
  2
Block1
340
0
102
{BLKREFS
331
16D
102
}
  0
BLOCK_RECORD
  5
8C
330
1
100
AcDbSymbolTableRecord
100
AcDbBlockTableRecord
  2
SW_BLOCK_DIMENSION_0
340
0
102
{BLKREFS
331
98
102
}
  0
BLOCK_RECORD
  5
8F
330
1
100
AcDbSymbolTableRecord
100
AcDbBlockTableRecord
  2
_ORIGIN
340
0
102
{BLKREFS
331
94
331
104
102
}
  0
BLOCK_RECORD
  5
99
330
1
100
AcDbSymbolTableRecord
100
AcDbBlockTableRecord
  2
SW_BLOCK_DIMENSION_1
340
0
102
{BLKREFS
331
A0
102
}
  0
BLOCK_RECORD
  5
A1
330
1
100
AcDbSymbolTableRecord
100
AcDbBlockTableRecord
  2
SW_BLOCK_DIMENSION_2
340
0
102
{BLKREFS
331
A8
102
}
  0
BLOCK_RECORD
  5
A9
330
1
100
AcDbSymbolTableRecord
100
AcDbBlockTableRecord
  2
SW_BLOCK_DIMENSION_3
340
0
102
{BLKREFS
331
B0
102
}
  0
BLOCK_RECORD
  5
B1
330
1
100
AcDbSymbolTableRecord
100
AcDbBlockTableRecord
  2
SW_BLOCK_DIMENSION_4
340
0
102
{BLKREFS
331
B8
102
}
  0
BLOCK_RECORD
  5
B9
330
1
100
AcDbSymbolTableRecord
100
AcDbBlockTableRecord
  2
SW_BLOCK_DIMENSION_5
340
0
102
{BLKREFS
331
C0
102
}
  0
BLOCK_RECORD
  5
C1
330
1
100
AcDbSymbolTableRecord
100
AcDbBlockTableRecord
  2
SW_BLOCK_DIMENSION_6
340
0
102
{BLKREFS
331
C8
102
}
  0
BLOCK_RECORD
  5
C9
330
1
100
AcDbSymbolTableRecord
100
AcDbBlockTableRecord
  2
SW_BLOCK_DIMENSION_7
340
0
102
{BLKREFS
331
D0
102
}
  0
BLOCK_RECORD
  5
D1
330
1
100
AcDbSymbolTableRecord
100
AcDbBlockTableRecord
  2
SW_BLOCK_DIMENSION_8
340
0
102
{BLKREFS
331
D8
102
}
  0
BLOCK_RECORD
  5
D9
330
1
100
AcDbSymbolTableRecord
100
AcDbBlockTableRecord
  2
SW_BLOCK_DIMENSION_9
340
0
102
{BLKREFS
331
E0
102
}
  0
BLOCK_RECORD
  5
E1
330
1
100
AcDbSymbolTableRecord
100
AcDbBlockTableRecord
  2
SW_BLOCK_DIMENSION_10
340
0
102
{BLKREFS
331
E8
102
}
  0
BLOCK_RECORD
  5
E9
330
1
100
AcDbSymbolTableRecord
100
AcDbBlockTableRecord
  2
SW_BLOCK_DIMENSION_11
340
0
102
{BLKREFS
331
F0
102
}
  0
BLOCK_RECORD
  5
F1
330
1
100
AcDbSymbolTableRecord
100
AcDbBlockTableRecord
  2
SW_BLOCK_DIMENSION_12
340
0
102
{BLKREFS
331
F8
102
}
  0
BLOCK_RECORD
  5
F9
330
1
100
AcDbSymbolTableRecord
100
AcDbBlockTableRecord
  2
SW_BLOCK_DIMENSION_13
340
0
102
{BLKREFS
331
100
102
}
  0
BLOCK_RECORD
  5
101
330
1
100
AcDbSymbolTableRecord
100
AcDbBlockTableRecord
  2
SW_BLOCK_DIMENSION_14
340
0
102
{BLKREFS
331
110
102
}
  0
BLOCK_RECORD
  5
111
330
1
100
AcDbSymbolTableRecord
100
AcDbBlockTableRecord
  2
SW_BLOCK_DIMENSION_15
340
0
102
{BLKREFS
331
121
102
}
  0
BLOCK_RECORD
  5
122
330
1
100
AcDbSymbolTableRecord
100
AcDbBlockTableRecord
  2
SW_BLOCK_DIMENSION_16
340
0
102
{BLKREFS
331
132
102
}
  0
BLOCK_RECORD
  5
133
330
1
100
AcDbSymbolTableRecord
100
AcDbBlockTableRecord
  2
SW_BLOCK_DIMENSION_17
340
0
102
{BLKREFS
331
143
102
}
  0
BLOCK_RECORD
  5
144
330
1
100
AcDbSymbolTableRecord
100
AcDbBlockTableRecord
  2
SW_BLOCK_DIMENSION_18
340
0
102
{BLKREFS
331
154
102
}
  0
BLOCK_RECORD
  5
155
330
1
100
AcDbSymbolTableRecord
100
AcDbBlockTableRecord
  2
SW_BLOCK_DIMENSION_19
340
0
102
{BLKREFS
331
165
102
}
  0
BLOCK_RECORD
  5
166
330
1
100
AcDbSymbolTableRecord
100
AcDbBlockTableRecord
  2
SW_NOTE_0
340
0
102
{BLKREFS
331
16B
102
}
  0
BLOCK_RECORD
  5
171
330
1
100
AcDbSymbolTableRecord
100
AcDbBlockTableRecord
  2
SW_NOTE_1
340
0
102
{BLKREFS
331
178
102
}
  0
ENDTAB
  0
ENDSEC
  0
SECTION
  2
BLOCKS
  0
BLOCK
  5
20
330
1F
100
AcDbEntity
  8
0
100
AcDbBlockBegin
  2
*Model_Space
 70
     0
 10
0.0
 20
0.0
 30
0.0
  3
*Model_Space
  1

  0
ENDBLK
  5
21
330
1F
100
AcDbEntity
  8
0
100
AcDbBlockEnd
  0
BLOCK
  5
1C
330
1B
100
AcDbEntity
 67
     1
  8
0
100
AcDbBlockBegin
  2
*Paper_Space
 70
     0
 10
0.0
 20
0.0
 30
0.0
  3
*Paper_Space
  1

  0
ENDBLK
  5
1D
330
1B
100
AcDbEntity
 67
     1
  8
0
100
AcDbBlockEnd
  0
BLOCK
  5
24
330
23
100
AcDbEntity
  8
0
100
AcDbBlockBegin
  2
*Paper_Space0
 70
     0
 10
0.0
 20
0.0
 30
0.0
  3
*Paper_Space0
  1

  0
ENDBLK
  5
25
330
23
100
AcDbEntity
  8
0
100
AcDbBlockEnd
  0
BLOCK
  5
76
330
75
100
AcDbEntity
  8
0
100
AcDbBlockBegin
  2
Block1
 70
     0
 10
0.0
 20
0.0
 30
0.0
  3
Block1
  1

  0
LINE
  5
78
330
75
100
AcDbEntity
  8
EBENE_1
100
AcDbLine
 10
363.6834285714
 20
41.3579706949
 30
0.0
 11
388.6834285714
 21
41.3579706949
 31
0.0
  0
LINE
  5
79
330
75
100
AcDbEntity
  8
EBENE_1
100
AcDbLine
 10
374.9034285714
 20
41.3579706949
 30
0.0
 11
374.9034285714
 21
171.3579706949
 31
0.0
  0
LINE
  5
7A
330
75
100
AcDbEntity
  8
EBENE_1
100
AcDbLine
 10
374.9034285714
 20
51.3579706949
 30
0.0
 11
384.9034285714
 21
51.3579706949
 31
0.0
  0
LINE
  5
7B
330
75
100
AcDbEntity
  8
EBENE_1
100
AcDbLine
 10
374.9034285714
 20
61.3579706949
 30
0.0
 11
384.9034285714
 21
61.3579706949
 31
0.0
  0
LINE
  5
7C
330
75
100
AcDbEntity
  8
EBENE_1
100
AcDbLine
 10
374.9034285714
 20
71.3579706949
 30
0.0
 11
384.9034285714
 21
71.3579706949
 31
0.0
  0
LINE
  5
7D
330
75
100
AcDbEntity
  8
EBENE_1
100
AcDbLine
 10
374.9034285714
 20
81.3579706949
 30
0.0
 11
384.9034285714
 21
81.3579706949
 31
0.0
  0
LINE
  5
7E
330
75
100
AcDbEntity
  8
EBENE_1
100
AcDbLine
 10
374.9034285714
 20
91.3579706949
 30
0.0
 11
384.9034285714
 21
91.3579706949
 31
0.0
  0
LINE
  5
7F
330
75
100
AcDbEntity
  8
EBENE_1
100
AcDbLine
 10
374.9034285714
 20
101.3579706949
 30
0.0
 11
384.9034285714
 21
101.3579706949
 31
0.0
  0
LINE
  5
80
330
75
100
AcDbEntity
  8
EBENE_1
100
AcDbLine
 10
374.9034285714
 20
111.3579706949
 30
0.0
 11
384.9034285714
 21
111.3579706949
 31
0.0
  0
LINE
  5
81
330
75
100
AcDbEntity
  8
EBENE_1
100
AcDbLine
 10
374.9034285714
 20
121.3579706949
 30
0.0
 11
384.9034285714
 21
121.3579706949
 31
0.0
  0
LINE
  5
82
330
75
100
AcDbEntity
  8
EBENE_1
100
AcDbLine
 10
374.9034285714
 20
131.3579706949
 30
0.0
 11
384.9034285714
 21
131.3579706949
 31
0.0
  0
LINE
  5
83
330
75
100
AcDbEntity
  8
EBENE_1
100
AcDbLine
 10
374.9034285714
 20
141.3579706949
 30
0.0
 11
384.9034285714
 21
141.3579706949
 31
0.0
  0
LINE
  5
84
330
75
100
AcDbEntity
  8
EBENE_1
100
AcDbLine
 10
374.9034285714
 20
151.3579706949
 30
0.0
 11
384.9034285714
 21
151.3579706949
 31
0.0
  0
LINE
  5
85
330
75
100
AcDbEntity
  8
EBENE_1
100
AcDbLine
 10
374.9034285714
 20
161.3579706949
 30
0.0
 11
384.9034285714
 21
161.3579706949
 31
0.0
  0
LINE
  5
86
330
75
100
AcDbEntity
  8
EBENE_1
100
AcDbLine
 10
374.9034285714
 20
171.3579706949
 30
0.0
 11
384.9034285714
 21
171.3579706949
 31
0.0
  0
LINE
  5
87
330
75
100
AcDbEntity
  8
EBENE_1
100
AcDbLine
 10
374.9034285714
 20
66.7579706949
 30
0.0
 11
362.9034285714
 21
66.7579706949
 31
0.0
  0
LINE
  5
88
330
75
100
AcDbEntity
  8
EBENE_1
100
AcDbLine
 10
374.9034285714
 20
92.1579706949
 30
0.0
 11
362.9034285714
 21
92.1579706949
 31
0.0
  0
LINE
  5
89
330
75
100
AcDbEntity
  8
EBENE_1
100
AcDbLine
 10
374.9034285714
 20
117.5579706949
 30
0.0
 11
362.9034285714
 21
117.5579706949
 31
0.0
  0
LINE
  5
8A
330
75
100
AcDbEntity
  8
EBENE_1
100
AcDbLine
 10
374.9034285714
 20
142.9579706949
 30
0.0
 11
362.9034285714
 21
142.9579706949
 31
0.0
  0
LINE
  5
8B
330
75
100
AcDbEntity
  8
EBENE_1
100
AcDbLine
 10
374.9034285714
 20
168.3579706949
 30
0.0
 11
362.9034285714
 21
168.3579706949
 31
0.0
  0
INSERT
  5
98
330
75
100
AcDbEntity
  8
EBENE_1
100
AcDbBlockReference
  2
SW_BLOCK_DIMENSION_0
 10
397.2096946378
 20
38.9914197296
 30
0.0
  0
INSERT
  5
A0
330
75
100
AcDbEntity
  8
EBENE_1
100
AcDbBlockReference
  2
SW_BLOCK_DIMENSION_1
 10
397.2096946378
 20
48.9914197296
 30
0.0
  0
INSERT
  5
A8
330
75
100
AcDbEntity
  8
EBENE_1
100
AcDbBlockReference
  2
SW_BLOCK_DIMENSION_2
 10
397.2096946378
 20
58.9914197296
 30
0.0
  0
INSERT
  5
B0
330
75
100
AcDbEntity
  8
EBENE_1
100
AcDbBlockReference
  2
SW_BLOCK_DIMENSION_3
 10
397.2096946378
 20
68.9914197296
 30
0.0
  0
INSERT
  5
B8
330
75
100
AcDbEntity
  8
EBENE_1
100
AcDbBlockReference
  2
SW_BLOCK_DIMENSION_4
 10
397.2096946378
 20
78.9914197296
 30
0.0
  0
INSERT
  5
C0
330
75
100
AcDbEntity
  8
EBENE_1
100
AcDbBlockReference
  2
SW_BLOCK_DIMENSION_5
 10
397.2096946378
 20
88.9914197296
 30
0.0
  0
INSERT
  5
C8
330
75
100
AcDbEntity
  8
EBENE_1
100
AcDbBlockReference
  2
SW_BLOCK_DIMENSION_6
 10
397.2096946378
 20
98.9914197296
 30
0.0
  0
INSERT
  5
D0
330
75
100
AcDbEntity
  8
EBENE_1
100
AcDbBlockReference
  2
SW_BLOCK_DIMENSION_7
 10
397.2096946378
 20
108.9914197296
 30
0.0
  0
INSERT
  5
D8
330
75
100
AcDbEntity
  8
EBENE_1
100
AcDbBlockReference
  2
SW_BLOCK_DIMENSION_8
 10
397.2096946378
 20
118.9914197296
 30
0.0
  0
INSERT
  5
E0
330
75
100
AcDbEntity
  8
EBENE_1
100
AcDbBlockReference
  2
SW_BLOCK_DIMENSION_9
 10
397.2096946378
 20
128.9914197296
 30
0.0
  0
INSERT
  5
E8
330
75
100
AcDbEntity
  8
EBENE_1
100
AcDbBlockReference
  2
SW_BLOCK_DIMENSION_10
 10
397.2096946378
 20
138.9914197296
 30
0.0
  0
INSERT
  5
F0
330
75
100
AcDbEntity
  8
EBENE_1
100
AcDbBlockReference
  2
SW_BLOCK_DIMENSION_11
 10
397.2096946378
 20
148.9914197296
 30
0.0
  0
INSERT
  5
F8
330
75
100
AcDbEntity
  8
EBENE_1
100
AcDbBlockReference
  2
SW_BLOCK_DIMENSION_12
 10
397.2096946378
 20
158.9914197296
 30
0.0
  0
INSERT
  5
100
330
75
100
AcDbEntity
  8
EBENE_1
100
AcDbBlockReference
  2
SW_BLOCK_DIMENSION_13
 10
397.2096946378
 20
168.9914197296
 30
0.0
  0
INSERT
  5
110
330
75
100
AcDbEntity
  8
EBENE_1
100
AcDbBlockReference
  2
SW_BLOCK_DIMENSION_14
 10
337.2987953614
 20
36.1691980072
 30
0.0
  0
INSERT
  5
121
330
75
100
AcDbEntity
  8
EBENE_1
100
AcDbBlockReference
  2
SW_BLOCK_DIMENSION_15
 10
337.2987953614
 20
61.5691980072
 30
0.0
  0
INSERT
  5
132
330
75
100
AcDbEntity
  8
EBENE_1
100
AcDbBlockReference
  2
SW_BLOCK_DIMENSION_16
 10
337.2987953614
 20
86.9691980072
 30
0.0
  0
INSERT
  5
143
330
75
100
AcDbEntity
  8
EBENE_1
100
AcDbBlockReference
  2
SW_BLOCK_DIMENSION_17
 10
337.2987953614
 20
112.3691980072
 30
0.0
  0
INSERT
  5
154
330
75
100
AcDbEntity
  8
EBENE_1
100
AcDbBlockReference
  2
SW_BLOCK_DIMENSION_18
 10
336.8284243759
 20
137.7691980072
 30
0.0
  0
INSERT
  5
165
330
75
100
AcDbEntity
  8
EBENE_1
100
AcDbBlockReference
  2
SW_BLOCK_DIMENSION_19
 10
337.2987953614
 20
163.1691980072
 30
0.0
  0
INSERT
  5
16B
330
75
100
AcDbEntity
  8
EBENE_1
 62
   179
100
AcDbBlockReference
  2
SW_NOTE_0
 10
337.5586028241
 20
28.8175207347
 30
0.0
  0
MTEXT
  5
16C
330
75
100
AcDbEntity
  8
EBENE_1
100
AcDbMText
 10
393.160738319
 20
33.5924424874
 30
0.0
 40
3.7041666667
 41
0.0
 71
     1
 72
     1
  1
mm
  7
SLDTEXTSTYLE0
 73
     1
 44
1.0
  0
ENDBLK
  5
77
330
75
100
AcDbEntity
  8
0
100
AcDbBlockEnd
  0
BLOCK
  5
8D
330
8C
100
AcDbEntity
  8
0
100
AcDbBlockBegin
  2
SW_BLOCK_DIMENSION_0
 70
     0
 10
0.0
 20
0.0
 30
0.0
  3
SW_BLOCK_DIMENSION_0
  1

  0
INSERT
  5
94
330
8C
100
AcDbEntity
  8
EBENE_1
 62
     0
100
AcDbBlockReference
  2
_ORIGIN
 10
-1.5805038061
 20
2.3665509652
 30
0.0
 41
0.9483022837
 42
0.9483022837
 50
0.0
  0
LINE
  5
95
330
8C
100
AcDbEntity
  8
EBENE_1
 62
     0
100
AcDbLine
 10
-6.5262660664
 20
2.3665509652
 30
0.0
 11
0.0
 21
2.3665509652
 31
0.0
  0
MTEXT
  5
97
330
8C
100
AcDbEntity
  8
EBENE_1
 62
     0
100
AcDbMText
 10
0.0
 20
4.0927900738
 30
0.0
 40
3.175
 41
0.0
 71
     1
 72
     1
  1
0
  7
SLDTEXTSTYLE0
 73
     1
 44
1.0
  0
ENDBLK
  5
8E
330
8C
100
AcDbEntity
  8
0
100
AcDbBlockEnd
  0
BLOCK
  5
90
330
8F
100
AcDbEntity
  8
0
100
AcDbBlockBegin
  2
_ORIGIN
 70
     0
 10
0.0
 20
0.0
 30
0.0
  3
_ORIGIN
  1

  0
CIRCLE
  5
92
330
8F
100
AcDbEntity
  8
0
  6
ByBlock
 62
     0
370
    -2
100
AcDbCircle
 10
0.0
 20
0.0
 30
0.0
 40
0.5
  0
LINE
  5
93
330
8F
100
AcDbEntity
  8
0
  6
ByBlock
 62
     0
370
    -2
100
AcDbLine
 10
0.0
 20
0.0
 30
0.0
 11
-1.0
 21
0.0
 31
0.0
  0
ENDBLK
  5
91
330
8F
100
AcDbEntity
  8
0
100
AcDbBlockEnd
  0
BLOCK
  5
9A
330
99
100
AcDbEntity
  8
0
100
AcDbBlockBegin
  2
SW_BLOCK_DIMENSION_1
 70
     0
 10
0.0
 20
0.0
 30
0.0
  3
SW_BLOCK_DIMENSION_1
  1

  0
SOLID
  5
9C
330
99
100
AcDbEntity
  8
EBENE_1
 62
     0
100
AcDbTrace
 10
-1.5805038061
 20
2.3665509652
 30
0.0
 11
-2.0546549479
 21
-0.7154314566
 31
0.0
 12
-1.1063526643
 22
-0.7154314566
 32
0.0
 13
-1.1063526643
 23
-0.7154314566
 33
0.0
  0
LINE
  5
9D
330
99
100
AcDbEntity
  8
EBENE_1
 62
     0
100
AcDbLine
 10
-10.3062660664
 20
2.3665509652
 30
0.0
 11
0.0
 21
2.3665509652
 31
0.0
  0
LINE
  5
9E
330
99
100
AcDbEntity
  8
EBENE_1
 62
     0
100
AcDbLine
 10
-1.5805038061
 20
-7.6334490348
 30
0.0
 11
-1.5805038061
 21
2.3665509652
 31
0.0
  0
MTEXT
  5
9F
330
99
100
AcDbEntity
  8
EBENE_1
 62
     0
100
AcDbMText
 10
0.0
 20
4.0927900738
 30
0.0
 40
3.175
 41
0.0
 71
     1
 72
     1
  1
10
  7
SLDTEXTSTYLE0
 73
     1
 44
1.0
  0
ENDBLK
  5
9B
330
99
100
AcDbEntity
  8
0
100
AcDbBlockEnd
  0
BLOCK
  5
A2
330
A1
100
AcDbEntity
  8
0
100
AcDbBlockBegin
  2
SW_BLOCK_DIMENSION_2
 70
     0
 10
0.0
 20
0.0
 30
0.0
  3
SW_BLOCK_DIMENSION_2
  1

  0
SOLID
  5
A4
330
A1
100
AcDbEntity
  8
EBENE_1
 62
     0
100
AcDbTrace
 10
-1.5805038061
 20
2.3665509652
 30
0.0
 11
-2.0546549479
 21
-0.7154314566
 31
0.0
 12
-1.1063526643
 22
-0.7154314566
 32
0.0
 13
-1.1063526643
 23
-0.7154314566
 33
0.0
  0
LINE
  5
A5
330
A1
100
AcDbEntity
  8
EBENE_1
 62
     0
100
AcDbLine
 10
-10.3062660664
 20
2.3665509652
 30
0.0
 11
0.0
 21
2.3665509652
 31
0.0
  0
LINE
  5
A6
330
A1
100
AcDbEntity
  8
EBENE_1
 62
     0
100
AcDbLine
 10
-1.5805038061
 20
-7.6334490348
 30
0.0
 11
-1.5805038061
 21
2.3665509652
 31
0.0
  0
MTEXT
  5
A7
330
A1
100
AcDbEntity
  8
EBENE_1
 62
     0
100
AcDbMText
 10
0.0
 20
4.0927900738
 30
0.0
 40
3.175
 41
0.0
 71
     1
 72
     1
  1
20
  7
SLDTEXTSTYLE0
 73
     1
 44
1.0
  0
ENDBLK
  5
A3
330
A1
100
AcDbEntity
  8
0
100
AcDbBlockEnd
  0
BLOCK
  5
AA
330
A9
100
AcDbEntity
  8
0
100
AcDbBlockBegin
  2
SW_BLOCK_DIMENSION_3
 70
     0
 10
0.0
 20
0.0
 30
0.0
  3
SW_BLOCK_DIMENSION_3
  1

  0
SOLID
  5
AC
330
A9
100
AcDbEntity
  8
EBENE_1
 62
     0
100
AcDbTrace
 10
-1.5805038061
 20
2.3665509652
 30
0.0
 11
-2.0546549479
 21
-0.7154314566
 31
0.0
 12
-1.1063526643
 22
-0.7154314566
 32
0.0
 13
-1.1063526643
 23
-0.7154314566
 33
0.0
  0
LINE
  5
AD
330
A9
100
AcDbEntity
  8
EBENE_1
 62
     0
100
AcDbLine
 10
-10.3062660664
 20
2.3665509652
 30
0.0
 11
0.0
 21
2.3665509652
 31
0.0
  0
LINE
  5
AE
330
A9
100
AcDbEntity
  8
EBENE_1
 62
     0
100
AcDbLine
 10
-1.5805038061
 20
-7.6334490348
 30
0.0
 11
-1.5805038061
 21
2.3665509652
 31
0.0
  0
MTEXT
  5
AF
330
A9
100
AcDbEntity
  8
EBENE_1
 62
     0
100
AcDbMText
 10
0.0
 20
4.0927900738
 30
0.0
 40
3.175
 41
0.0
 71
     1
 72
     1
  1
30
  7
SLDTEXTSTYLE0
 73
     1
 44
1.0
  0
ENDBLK
  5
AB
330
A9
100
AcDbEntity
  8
0
100
AcDbBlockEnd
  0
BLOCK
  5
B2
330
B1
100
AcDbEntity
  8
0
100
AcDbBlockBegin
  2
SW_BLOCK_DIMENSION_4
 70
     0
 10
0.0
 20
0.0
 30
0.0
  3
SW_BLOCK_DIMENSION_4
  1

  0
SOLID
  5
B4
330
B1
100
AcDbEntity
  8
EBENE_1
 62
     0
100
AcDbTrace
 10
-1.5805038061
 20
2.3665509652
 30
0.0
 11
-2.0546549479
 21
-0.7154314566
 31
0.0
 12
-1.1063526643
 22
-0.7154314566
 32
0.0
 13
-1.1063526643
 23
-0.7154314566
 33
0.0
  0
LINE
  5
B5
330
B1
100
AcDbEntity
  8
EBENE_1
 62
     0
100
AcDbLine
 10
-10.3062660664
 20
2.3665509652
 30
0.0
 11
0.0
 21
2.3665509652
 31
0.0
  0
LINE
  5
B6
330
B1
100
AcDbEntity
  8
EBENE_1
 62
     0
100
AcDbLine
 10
-1.5805038061
 20
-7.6334490348
 30
0.0
 11
-1.5805038061
 21
2.3665509652
 31
0.0
  0
MTEXT
  5
B7
330
B1
100
AcDbEntity
  8
EBENE_1
 62
     0
100
AcDbMText
 10
0.0
 20
4.0927900738
 30
0.0
 40
3.175
 41
0.0
 71
     1
 72
     1
  1
40
  7
SLDTEXTSTYLE0
 73
     1
 44
1.0
  0
ENDBLK
  5
B3
330
B1
100
AcDbEntity
  8
0
100
AcDbBlockEnd
  0
BLOCK
  5
BA
330
B9
100
AcDbEntity
  8
0
100
AcDbBlockBegin
  2
SW_BLOCK_DIMENSION_5
 70
     0
 10
0.0
 20
0.0
 30
0.0
  3
SW_BLOCK_DIMENSION_5
  1

  0
SOLID
  5
BC
330
B9
100
AcDbEntity
  8
EBENE_1
 62
     0
100
AcDbTrace
 10
-1.5805038061
 20
2.3665509652
 30
0.0
 11
-2.0546549479
 21
-0.7154314566
 31
0.0
 12
-1.1063526643
 22
-0.7154314566
 32
0.0
 13
-1.1063526643
 23
-0.7154314566
 33
0.0
  0
LINE
  5
BD
330
B9
100
AcDbEntity
  8
EBENE_1
 62
     0
100
AcDbLine
 10
-10.3062660664
 20
2.3665509652
 30
0.0
 11
0.0
 21
2.3665509652
 31
0.0
  0
LINE
  5
BE
330
B9
100
AcDbEntity
  8
EBENE_1
 62
     0
100
AcDbLine
 10
-1.5805038061
 20
-7.6334490348
 30
0.0
 11
-1.5805038061
 21
2.3665509652
 31
0.0
  0
MTEXT
  5
BF
330
B9
100
AcDbEntity
  8
EBENE_1
 62
     0
100
AcDbMText
 10
0.0
 20
4.0927900738
 30
0.0
 40
3.175
 41
0.0
 71
     1
 72
     1
  1
50
  7
SLDTEXTSTYLE0
 73
     1
 44
1.0
  0
ENDBLK
  5
BB
330
B9
100
AcDbEntity
  8
0
100
AcDbBlockEnd
  0
BLOCK
  5
C2
330
C1
100
AcDbEntity
  8
0
100
AcDbBlockBegin
  2
SW_BLOCK_DIMENSION_6
 70
     0
 10
0.0
 20
0.0
 30
0.0
  3
SW_BLOCK_DIMENSION_6
  1

  0
SOLID
  5
C4
330
C1
100
AcDbEntity
  8
EBENE_1
 62
     0
100
AcDbTrace
 10
-1.5805038061
 20
2.3665509652
 30
0.0
 11
-2.0546549479
 21
-0.7154314566
 31
0.0
 12
-1.1063526643
 22
-0.7154314566
 32
0.0
 13
-1.1063526643
 23
-0.7154314566
 33
0.0
  0
LINE
  5
C5
330
C1
100
AcDbEntity
  8
EBENE_1
 62
     0
100
AcDbLine
 10
-10.3062660664
 20
2.3665509652
 30
0.0
 11
0.0
 21
2.3665509652
 31
0.0
  0
LINE
  5
C6
330
C1
100
AcDbEntity
  8
EBENE_1
 62
     0
100
AcDbLine
 10
-1.5805038061
 20
-7.6334490348
 30
0.0
 11
-1.5805038061
 21
2.3665509652
 31
0.0
  0
MTEXT
  5
C7
330
C1
100
AcDbEntity
  8
EBENE_1
 62
     0
100
AcDbMText
 10
0.0
 20
4.0927900738
 30
0.0
 40
3.175
 41
0.0
 71
     1
 72
     1
  1
60
  7
SLDTEXTSTYLE0
 73
     1
 44
1.0
  0
ENDBLK
  5
C3
330
C1
100
AcDbEntity
  8
0
100
AcDbBlockEnd
  0
BLOCK
  5
CA
330
C9
100
AcDbEntity
  8
0
100
AcDbBlockBegin
  2
SW_BLOCK_DIMENSION_7
 70
     0
 10
0.0
 20
0.0
 30
0.0
  3
SW_BLOCK_DIMENSION_7
  1

  0
SOLID
  5
CC
330
C9
100
AcDbEntity
  8
EBENE_1
 62
     0
100
AcDbTrace
 10
-1.5805038061
 20
2.3665509652
 30
0.0
 11
-2.0546549479
 21
-0.7154314566
 31
0.0
 12
-1.1063526643
 22
-0.7154314566
 32
0.0
 13
-1.1063526643
 23
-0.7154314566
 33
0.0
  0
LINE
  5
CD
330
C9
100
AcDbEntity
  8
EBENE_1
 62
     0
100
AcDbLine
 10
-10.3062660664
 20
2.3665509652
 30
0.0
 11
0.0
 21
2.3665509652
 31
0.0
  0
LINE
  5
CE
330
C9
100
AcDbEntity
  8
EBENE_1
 62
     0
100
AcDbLine
 10
-1.5805038061
 20
-7.6334490348
 30
0.0
 11
-1.5805038061
 21
2.3665509652
 31
0.0
  0
MTEXT
  5
CF
330
C9
100
AcDbEntity
  8
EBENE_1
 62
     0
100
AcDbMText
 10
0.0
 20
4.0927900738
 30
0.0
 40
3.175
 41
0.0
 71
     1
 72
     1
  1
70
  7
SLDTEXTSTYLE0
 73
     1
 44
1.0
  0
ENDBLK
  5
CB
330
C9
100
AcDbEntity
  8
0
100
AcDbBlockEnd
  0
BLOCK
  5
D2
330
D1
100
AcDbEntity
  8
0
100
AcDbBlockBegin
  2
SW_BLOCK_DIMENSION_8
 70
     0
 10
0.0
 20
0.0
 30
0.0
  3
SW_BLOCK_DIMENSION_8
  1

  0
SOLID
  5
D4
330
D1
100
AcDbEntity
  8
EBENE_1
 62
     0
100
AcDbTrace
 10
-1.5805038061
 20
2.3665509652
 30
0.0
 11
-2.0546549479
 21
-0.7154314566
 31
0.0
 12
-1.1063526643
 22
-0.7154314566
 32
0.0
 13
-1.1063526643
 23
-0.7154314566
 33
0.0
  0
LINE
  5
D5
330
D1
100
AcDbEntity
  8
EBENE_1
 62
     0
100
AcDbLine
 10
-10.3062660664
 20
2.3665509652
 30
0.0
 11
0.0
 21
2.3665509652
 31
0.0
  0
LINE
  5
D6
330
D1
100
AcDbEntity
  8
EBENE_1
 62
     0
100
AcDbLine
 10
-1.5805038061
 20
-7.6334490348
 30
0.0
 11
-1.5805038061
 21
2.3665509652
 31
0.0
  0
MTEXT
  5
D7
330
D1
100
AcDbEntity
  8
EBENE_1
 62
     0
100
AcDbMText
 10
0.0
 20
4.0927900738
 30
0.0
 40
3.175
 41
0.0
 71
     1
 72
     1
  1
80
  7
SLDTEXTSTYLE0
 73
     1
 44
1.0
  0
ENDBLK
  5
D3
330
D1
100
AcDbEntity
  8
0
100
AcDbBlockEnd
  0
BLOCK
  5
DA
330
D9
100
AcDbEntity
  8
0
100
AcDbBlockBegin
  2
SW_BLOCK_DIMENSION_9
 70
     0
 10
0.0
 20
0.0
 30
0.0
  3
SW_BLOCK_DIMENSION_9
  1

  0
SOLID
  5
DC
330
D9
100
AcDbEntity
  8
EBENE_1
 62
     0
100
AcDbTrace
 10
-1.5805038061
 20
2.3665509652
 30
0.0
 11
-2.0546549479
 21
-0.7154314566
 31
0.0
 12
-1.1063526643
 22
-0.7154314566
 32
0.0
 13
-1.1063526643
 23
-0.7154314566
 33
0.0
  0
LINE
  5
DD
330
D9
100
AcDbEntity
  8
EBENE_1
 62
     0
100
AcDbLine
 10
-10.3062660664
 20
2.3665509652
 30
0.0
 11
0.0
 21
2.3665509652
 31
0.0
  0
LINE
  5
DE
330
D9
100
AcDbEntity
  8
EBENE_1
 62
     0
100
AcDbLine
 10
-1.5805038061
 20
-7.6334490348
 30
0.0
 11
-1.5805038061
 21
2.3665509652
 31
0.0
  0
MTEXT
  5
DF
330
D9
100
AcDbEntity
  8
EBENE_1
 62
     0
100
AcDbMText
 10
0.0
 20
4.0927900738
 30
0.0
 40
3.175
 41
0.0
 71
     1
 72
     1
  1
90
  7
SLDTEXTSTYLE0
 73
     1
 44
1.0
  0
ENDBLK
  5
DB
330
D9
100
AcDbEntity
  8
0
100
AcDbBlockEnd
  0
BLOCK
  5
E2
330
E1
100
AcDbEntity
  8
0
100
AcDbBlockBegin
  2
SW_BLOCK_DIMENSION_10
 70
     0
 10
0.0
 20
0.0
 30
0.0
  3
SW_BLOCK_DIMENSION_10
  1

  0
SOLID
  5
E4
330
E1
100
AcDbEntity
  8
EBENE_1
 62
     0
100
AcDbTrace
 10
-1.5805038061
 20
2.3665509652
 30
0.0
 11
-2.0546549479
 21
-0.7154314566
 31
0.0
 12
-1.1063526643
 22
-0.7154314566
 32
0.0
 13
-1.1063526643
 23
-0.7154314566
 33
0.0
  0
LINE
  5
E5
330
E1
100
AcDbEntity
  8
EBENE_1
 62
     0
100
AcDbLine
 10
-10.3062660664
 20
2.3665509652
 30
0.0
 11
0.0
 21
2.3665509652
 31
0.0
  0
LINE
  5
E6
330
E1
100
AcDbEntity
  8
EBENE_1
 62
     0
100
AcDbLine
 10
-1.5805038061
 20
-7.6334490348
 30
0.0
 11
-1.5805038061
 21
2.3665509652
 31
0.0
  0
MTEXT
  5
E7
330
E1
100
AcDbEntity
  8
EBENE_1
 62
     0
100
AcDbMText
 10
0.0
 20
4.0927900738
 30
0.0
 40
3.175
 41
0.0
 71
     1
 72
     1
  1
100
  7
SLDTEXTSTYLE0
 73
     1
 44
1.0
  0
ENDBLK
  5
E3
330
E1
100
AcDbEntity
  8
0
100
AcDbBlockEnd
  0
BLOCK
  5
EA
330
E9
100
AcDbEntity
  8
0
100
AcDbBlockBegin
  2
SW_BLOCK_DIMENSION_11
 70
     0
 10
0.0
 20
0.0
 30
0.0
  3
SW_BLOCK_DIMENSION_11
  1

  0
SOLID
  5
EC
330
E9
100
AcDbEntity
  8
EBENE_1
 62
     0
100
AcDbTrace
 10
-1.5805038061
 20
2.3665509652
 30
0.0
 11
-2.0546549479
 21
-0.7154314566
 31
0.0
 12
-1.1063526643
 22
-0.7154314566
 32
0.0
 13
-1.1063526643
 23
-0.7154314566
 33
0.0
  0
LINE
  5
ED
330
E9
100
AcDbEntity
  8
EBENE_1
 62
     0
100
AcDbLine
 10
-10.3062660664
 20
2.3665509652
 30
0.0
 11
0.0
 21
2.3665509652
 31
0.0
  0
LINE
  5
EE
330
E9
100
AcDbEntity
  8
EBENE_1
 62
     0
100
AcDbLine
 10
-1.5805038061
 20
-7.6334490348
 30
0.0
 11
-1.5805038061
 21
2.3665509652
 31
0.0
  0
MTEXT
  5
EF
330
E9
100
AcDbEntity
  8
EBENE_1
 62
     0
100
AcDbMText
 10
0.0
 20
4.0927900738
 30
0.0
 40
3.175
 41
0.0
 71
     1
 72
     1
  1
110
  7
SLDTEXTSTYLE0
 73
     1
 44
1.0
  0
ENDBLK
  5
EB
330
E9
100
AcDbEntity
  8
0
100
AcDbBlockEnd
  0
BLOCK
  5
F2
330
F1
100
AcDbEntity
  8
0
100
AcDbBlockBegin
  2
SW_BLOCK_DIMENSION_12
 70
     0
 10
0.0
 20
0.0
 30
0.0
  3
SW_BLOCK_DIMENSION_12
  1

  0
SOLID
  5
F4
330
F1
100
AcDbEntity
  8
EBENE_1
 62
     0
100
AcDbTrace
 10
-1.5805038061
 20
2.3665509652
 30
0.0
 11
-2.0546549479
 21
-0.7154314566
 31
0.0
 12
-1.1063526643
 22
-0.7154314566
 32
0.0
 13
-1.1063526643
 23
-0.7154314566
 33
0.0
  0
LINE
  5
F5
330
F1
100
AcDbEntity
  8
EBENE_1
 62
     0
100
AcDbLine
 10
-10.3062660664
 20
2.3665509652
 30
0.0
 11
0.0
 21
2.3665509652
 31
0.0
  0
LINE
  5
F6
330
F1
100
AcDbEntity
  8
EBENE_1
 62
     0
100
AcDbLine
 10
-1.5805038061
 20
-7.6334490348
 30
0.0
 11
-1.5805038061
 21
2.3665509652
 31
0.0
  0
MTEXT
  5
F7
330
F1
100
AcDbEntity
  8
EBENE_1
 62
     0
100
AcDbMText
 10
0.0
 20
4.0927900738
 30
0.0
 40
3.175
 41
0.0
 71
     1
 72
     1
  1
120
  7
SLDTEXTSTYLE0
 73
     1
 44
1.0
  0
ENDBLK
  5
F3
330
F1
100
AcDbEntity
  8
0
100
AcDbBlockEnd
  0
BLOCK
  5
FA
330
F9
100
AcDbEntity
  8
0
100
AcDbBlockBegin
  2
SW_BLOCK_DIMENSION_13
 70
     0
 10
0.0
 20
0.0
 30
0.0
  3
SW_BLOCK_DIMENSION_13
  1

  0
SOLID
  5
FC
330
F9
100
AcDbEntity
  8
EBENE_1
 62
     0
100
AcDbTrace
 10
-1.5805038061
 20
2.3665509652
 30
0.0
 11
-2.0546549479
 21
-0.7154314566
 31
0.0
 12
-1.1063526643
 22
-0.7154314566
 32
0.0
 13
-1.1063526643
 23
-0.7154314566
 33
0.0
  0
LINE
  5
FD
330
F9
100
AcDbEntity
  8
EBENE_1
 62
     0
100
AcDbLine
 10
-10.3062660664
 20
2.3665509652
 30
0.0
 11
0.0
 21
2.3665509652
 31
0.0
  0
LINE
  5
FE
330
F9
100
AcDbEntity
  8
EBENE_1
 62
     0
100
AcDbLine
 10
-1.5805038061
 20
-7.6334490348
 30
0.0
 11
-1.5805038061
 21
2.3665509652
 31
0.0
  0
MTEXT
  5
FF
330
F9
100
AcDbEntity
  8
EBENE_1
 62
     0
100
AcDbMText
 10
0.0
 20
4.0927900738
 30
0.0
 40
3.175
 41
0.0
 71
     1
 72
     1
  1
130
  7
SLDTEXTSTYLE0
 73
     1
 44
1.0
  0
ENDBLK
  5
FB
330
F9
100
AcDbEntity
  8
0
100
AcDbBlockEnd
  0
BLOCK
  5
102
330
101
100
AcDbEntity
  8
0
100
AcDbBlockBegin
  2
SW_BLOCK_DIMENSION_14
 70
     0
 10
0.0
 20
0.0
 30
0.0
  3
SW_BLOCK_DIMENSION_14
  1

  0
INSERT
  5
104
330
101
100
AcDbEntity
  8
EBENE_1
 62
     0
100
AcDbBlockReference
  2
_ORIGIN
 10
16.3971707594
 20
5.1887726877
 30
0.0
 41
0.9483022837
 42
0.9483022837
 50
0.0
  0
LINE
  5
105
330
101
100
AcDbEntity
  8
EBENE_1
 62
     0
100
AcDbLine
 10
3.2925925916
 20
9.671990294
 30
0.0
 11
2.2342592711
 21
9.671990294
 31
0.0
  0
LINE
  5
106
330
101
100
AcDbEntity
  8
EBENE_1
 62
     0
100
AcDbLine
 10
2.2342592711
 20
9.671990294
 30
0.0
 11
2.2342592711
 21
4.9388883635
 31
0.0
  0
LINE
  5
107
330
101
100
AcDbEntity
  8
EBENE_1
 62
     0
100
AcDbLine
 10
2.2342592711
 20
4.9388883635
 30
0.0
 11
3.2925925916
 21
4.9388883635
 31
0.0
  0
LINE
  5
108
330
101
100
AcDbEntity
  8
EBENE_1
 62
     0
100
AcDbLine
 10
11.5240741288
 20
9.671990294
 30
0.0
 11
12.5824074494
 21
9.671990294
 31
0.0
  0
LINE
  5
109
330
101
100
AcDbEntity
  8
EBENE_1
 62
     0
100
AcDbLine
 10
12.5824074494
 20
9.671990294
 30
0.0
 11
12.5824074494
 21
4.9388883635
 31
0.0
  0
LINE
  5
10A
330
101
100
AcDbEntity
  8
EBENE_1
 62
     0
100
AcDbLine
 10
12.5824074494
 20
4.9388883635
 30
0.0
 11
11.5240741288
 21
4.9388883635
 31
0.0
  0
LINE
  5
10B
330
101
100
AcDbEntity
  8
EBENE_1
 62
     0
100
AcDbLine
 10
24.38463321
 20
5.1887726877
 30
0.0
 11
14.8166669533
 21
5.1887726877
 31
0.0
  0
MTEXT
  5
10C
330
101
100
AcDbEntity
  8
EBENE_1
 62
     0
100
AcDbMText
 10
1.190625
 20
4.0927900738
 30
0.0
 40
3.175
 41
0.0
 71
     1
 72
     1
  1

  7
SLDTEXTSTYLE0
 73
     1
 44
1.0
  0
MTEXT
  5
10D
330
101
100
AcDbEntity
  8
EBENE_1
 62
     0
100
AcDbMText
 10
3.2925925916
 20
9.0316784373
 30
0.0
 40
3.175
 41
0.0
 71
     1
 72
     1
  1
0,00
  7
SLDTEXTSTYLE0
 73
     1
 44
1.0
  0
MTEXT
  5
10E
330
101
100
AcDbEntity
  8
EBENE_1
 62
     0
100
AcDbMText
 10
6.2324074097
 20
4.0927898409
 30
0.0
 40
3.175
 41
0.0
 71
     1
 72
     1
  1
0
  7
SLDTEXTSTYLE0
 73
     1
 44
1.0
  0
MTEXT
  5
10F
330
101
100
AcDbEntity
  8
EBENE_1
 62
     0
100
AcDbMText
 10
14.8313658863
 20
4.0927900738
 30
0.0
 40
3.175
 41
0.0
 71
     1
 72
     1
  1

  7
SLDTEXTSTYLE0
 73
     1
 44
1.0
  0
ENDBLK
  5
103
330
101
100
AcDbEntity
  8
0
100
AcDbBlockEnd
  0
BLOCK
  5
112
330
111
100
AcDbEntity
  8
0
100
AcDbBlockBegin
  2
SW_BLOCK_DIMENSION_15
 70
     0
 10
0.0
 20
0.0
 30
0.0
  3
SW_BLOCK_DIMENSION_15
  1

  0
SOLID
  5
114
330
111
100
AcDbEntity
  8
EBENE_1
 62
     0
100
AcDbTrace
 10
16.3971707594
 20
5.1887726877
 30
0.0
 11
15.9230196175
 21
2.1067902658
 31
0.0
 12
16.8713219012
 22
2.1067902658
 32
0.0
 13
16.8713219012
 23
2.1067902658
 33
0.0
  0
LINE
  5
115
330
111
100
AcDbEntity
  8
EBENE_1
 62
     0
100
AcDbLine
 10
3.2925925916
 20
9.671990294
 30
0.0
 11
2.2342592711
 21
9.671990294
 31
0.0
  0
LINE
  5
116
330
111
100
AcDbEntity
  8
EBENE_1
 62
     0
100
AcDbLine
 10
2.2342592711
 20
9.671990294
 30
0.0
 11
2.2342592711
 21
4.9388883635
 31
0.0
  0
LINE
  5
117
330
111
100
AcDbEntity
  8
EBENE_1
 62
     0
100
AcDbLine
 10
2.2342592711
 20
4.9388883635
 30
0.0
 11
3.2925925916
 21
4.9388883635
 31
0.0
  0
LINE
  5
118
330
111
100
AcDbEntity
  8
EBENE_1
 62
     0
100
AcDbLine
 10
11.5240741288
 20
9.671990294
 30
0.0
 11
12.5824074494
 21
9.671990294
 31
0.0
  0
LINE
  5
119
330
111
100
AcDbEntity
  8
EBENE_1
 62
     0
100
AcDbLine
 10
12.5824074494
 20
9.671990294
 30
0.0
 11
12.5824074494
 21
4.9388883635
 31
0.0
  0
LINE
  5
11A
330
111
100
AcDbEntity
  8
EBENE_1
 62
     0
100
AcDbLine
 10
12.5824074494
 20
4.9388883635
 30
0.0
 11
11.5240741288
 21
4.9388883635
 31
0.0
  0
LINE
  5
11B
330
111
100
AcDbEntity
  8
EBENE_1
 62
     0
100
AcDbLine
 10
23.60463321
 20
5.1887726877
 30
0.0
 11
14.8166669533
 21
5.1887726877
 31
0.0
  0
LINE
  5
11C
330
111
100
AcDbEntity
  8
EBENE_1
 62
     0
100
AcDbLine
 10
16.3971707594
 20
-20.2112273123
 30
0.0
 11
16.3971707594
 21
5.1887726877
 31
0.0
  0
MTEXT
  5
11D
330
111
100
AcDbEntity
  8
EBENE_1
 62
     0
100
AcDbMText
 10
1.190625
 20
4.0927900738
 30
0.0
 40
3.175
 41
0.0
 71
     1
 72
     1
  1

  7
SLDTEXTSTYLE0
 73
     1
 44
1.0
  0
MTEXT
  5
11E
330
111
100
AcDbEntity
  8
EBENE_1
 62
     0
100
AcDbMText
 10
3.2925925916
 20
9.0316784373
 30
0.0
 40
3.175
 41
0.0
 71
     1
 72
     1
  1
1,00
  7
SLDTEXTSTYLE0
 73
     1
 44
1.0
  0
MTEXT
  5
11F
330
111
100
AcDbEntity
  8
EBENE_1
 62
     0
100
AcDbMText
 10
2.1166665247
 20
4.0927898409
 30
0.0
 40
3.175
 41
0.0
 71
     1
 72
     1
  1
25,40
  7
SLDTEXTSTYLE0
 73
     1
 44
1.0
  0
MTEXT
  5
120
330
111
100
AcDbEntity
  8
EBENE_1
 62
     0
100
AcDbMText
 10
14.8313658863
 20
4.0927900738
 30
0.0
 40
3.175
 41
0.0
 71
     1
 72
     1
  1

  7
SLDTEXTSTYLE0
 73
     1
 44
1.0
  0
ENDBLK
  5
113
330
111
100
AcDbEntity
  8
0
100
AcDbBlockEnd
  0
BLOCK
  5
123
330
122
100
AcDbEntity
  8
0
100
AcDbBlockBegin
  2
SW_BLOCK_DIMENSION_16
 70
     0
 10
0.0
 20
0.0
 30
0.0
  3
SW_BLOCK_DIMENSION_16
  1

  0
SOLID
  5
125
330
122
100
AcDbEntity
  8
EBENE_1
 62
     0
100
AcDbTrace
 10
16.3971707594
 20
5.1887726877
 30
0.0
 11
15.9230196175
 21
2.1067902658
 31
0.0
 12
16.8713219012
 22
2.1067902658
 32
0.0
 13
16.8713219012
 23
2.1067902658
 33
0.0
  0
LINE
  5
126
330
122
100
AcDbEntity
  8
EBENE_1
 62
     0
100
AcDbLine
 10
3.2925925916
 20
9.671990294
 30
0.0
 11
2.2342592711
 21
9.671990294
 31
0.0
  0
LINE
  5
127
330
122
100
AcDbEntity
  8
EBENE_1
 62
     0
100
AcDbLine
 10
2.2342592711
 20
9.671990294
 30
0.0
 11
2.2342592711
 21
4.9388883635
 31
0.0
  0
LINE
  5
128
330
122
100
AcDbEntity
  8
EBENE_1
 62
     0
100
AcDbLine
 10
2.2342592711
 20
4.9388883635
 30
0.0
 11
3.2925925916
 21
4.9388883635
 31
0.0
  0
LINE
  5
129
330
122
100
AcDbEntity
  8
EBENE_1
 62
     0
100
AcDbLine
 10
11.5240741288
 20
9.671990294
 30
0.0
 11
12.5824074494
 21
9.671990294
 31
0.0
  0
LINE
  5
12A
330
122
100
AcDbEntity
  8
EBENE_1
 62
     0
100
AcDbLine
 10
12.5824074494
 20
9.671990294
 30
0.0
 11
12.5824074494
 21
4.9388883635
 31
0.0
  0
LINE
  5
12B
330
122
100
AcDbEntity
  8
EBENE_1
 62
     0
100
AcDbLine
 10
12.5824074494
 20
4.9388883635
 30
0.0
 11
11.5240741288
 21
4.9388883635
 31
0.0
  0
LINE
  5
12C
330
122
100
AcDbEntity
  8
EBENE_1
 62
     0
100
AcDbLine
 10
23.60463321
 20
5.1887726877
 30
0.0
 11
14.8166669533
 21
5.1887726877
 31
0.0
  0
LINE
  5
12D
330
122
100
AcDbEntity
  8
EBENE_1
 62
     0
100
AcDbLine
 10
16.3971707594
 20
-20.2112273123
 30
0.0
 11
16.3971707594
 21
5.1887726877
 31
0.0
  0
MTEXT
  5
12E
330
122
100
AcDbEntity
  8
EBENE_1
 62
     0
100
AcDbMText
 10
1.190625
 20
4.0927900738
 30
0.0
 40
3.175
 41
0.0
 71
     1
 72
     1
  1

  7
SLDTEXTSTYLE0
 73
     1
 44
1.0
  0
MTEXT
  5
12F
330
122
100
AcDbEntity
  8
EBENE_1
 62
     0
100
AcDbMText
 10
3.2925925916
 20
9.0316784373
 30
0.0
 40
3.175
 41
0.0
 71
     1
 72
     1
  1
2,00
  7
SLDTEXTSTYLE0
 73
     1
 44
1.0
  0
MTEXT
  5
130
330
122
100
AcDbEntity
  8
EBENE_1
 62
     0
100
AcDbMText
 10
2.1166665247
 20
4.0927898409
 30
0.0
 40
3.175
 41
0.0
 71
     1
 72
     1
  1
50,80
  7
SLDTEXTSTYLE0
 73
     1
 44
1.0
  0
MTEXT
  5
131
330
122
100
AcDbEntity
  8
EBENE_1
 62
     0
100
AcDbMText
 10
14.8313658863
 20
4.0927900738
 30
0.0
 40
3.175
 41
0.0
 71
     1
 72
     1
  1

  7
SLDTEXTSTYLE0
 73
     1
 44
1.0
  0
ENDBLK
  5
124
330
122
100
AcDbEntity
  8
0
100
AcDbBlockEnd
  0
BLOCK
  5
134
330
133
100
AcDbEntity
  8
0
100
AcDbBlockBegin
  2
SW_BLOCK_DIMENSION_17
 70
     0
 10
0.0
 20
0.0
 30
0.0
  3
SW_BLOCK_DIMENSION_17
  1

  0
SOLID
  5
136
330
133
100
AcDbEntity
  8
EBENE_1
 62
     0
100
AcDbTrace
 10
16.3971707594
 20
5.1887726877
 30
0.0
 11
15.9230196175
 21
2.1067902658
 31
0.0
 12
16.8713219012
 22
2.1067902658
 32
0.0
 13
16.8713219012
 23
2.1067902658
 33
0.0
  0
LINE
  5
137
330
133
100
AcDbEntity
  8
EBENE_1
 62
     0
100
AcDbLine
 10
3.2925925916
 20
9.671990294
 30
0.0
 11
2.2342592711
 21
9.671990294
 31
0.0
  0
LINE
  5
138
330
133
100
AcDbEntity
  8
EBENE_1
 62
     0
100
AcDbLine
 10
2.2342592711
 20
9.671990294
 30
0.0
 11
2.2342592711
 21
4.9388883635
 31
0.0
  0
LINE
  5
139
330
133
100
AcDbEntity
  8
EBENE_1
 62
     0
100
AcDbLine
 10
2.2342592711
 20
4.9388883635
 30
0.0
 11
3.2925925916
 21
4.9388883635
 31
0.0
  0
LINE
  5
13A
330
133
100
AcDbEntity
  8
EBENE_1
 62
     0
100
AcDbLine
 10
11.5240741288
 20
9.671990294
 30
0.0
 11
12.5824074494
 21
9.671990294
 31
0.0
  0
LINE
  5
13B
330
133
100
AcDbEntity
  8
EBENE_1
 62
     0
100
AcDbLine
 10
12.5824074494
 20
9.671990294
 30
0.0
 11
12.5824074494
 21
4.9388883635
 31
0.0
  0
LINE
  5
13C
330
133
100
AcDbEntity
  8
EBENE_1
 62
     0
100
AcDbLine
 10
12.5824074494
 20
4.9388883635
 30
0.0
 11
11.5240741288
 21
4.9388883635
 31
0.0
  0
LINE
  5
13D
330
133
100
AcDbEntity
  8
EBENE_1
 62
     0
100
AcDbLine
 10
23.60463321
 20
5.1887726877
 30
0.0
 11
14.8166669533
 21
5.1887726877
 31
0.0
  0
LINE
  5
13E
330
133
100
AcDbEntity
  8
EBENE_1
 62
     0
100
AcDbLine
 10
16.3971707594
 20
-20.2112273123
 30
0.0
 11
16.3971707594
 21
5.1887726877
 31
0.0
  0
MTEXT
  5
13F
330
133
100
AcDbEntity
  8
EBENE_1
 62
     0
100
AcDbMText
 10
1.190625
 20
4.0927900738
 30
0.0
 40
3.175
 41
0.0
 71
     1
 72
     1
  1

  7
SLDTEXTSTYLE0
 73
     1
 44
1.0
  0
MTEXT
  5
140
330
133
100
AcDbEntity
  8
EBENE_1
 62
     0
100
AcDbMText
 10
3.2925925916
 20
9.0316784373
 30
0.0
 40
3.175
 41
0.0
 71
     1
 72
     1
  1
3,00
  7
SLDTEXTSTYLE0
 73
     1
 44
1.0
  0
MTEXT
  5
141
330
133
100
AcDbEntity
  8
EBENE_1
 62
     0
100
AcDbMText
 10
2.1166665247
 20
4.0927898409
 30
0.0
 40
3.175
 41
0.0
 71
     1
 72
     1
  1
76,20
  7
SLDTEXTSTYLE0
 73
     1
 44
1.0
  0
MTEXT
  5
142
330
133
100
AcDbEntity
  8
EBENE_1
 62
     0
100
AcDbMText
 10
14.8313658863
 20
4.0927900738
 30
0.0
 40
3.175
 41
0.0
 71
     1
 72
     1
  1

  7
SLDTEXTSTYLE0
 73
     1
 44
1.0
  0
ENDBLK
  5
135
330
133
100
AcDbEntity
  8
0
100
AcDbBlockEnd
  0
BLOCK
  5
145
330
144
100
AcDbEntity
  8
0
100
AcDbBlockBegin
  2
SW_BLOCK_DIMENSION_18
 70
     0
 10
0.0
 20
0.0
 30
0.0
  3
SW_BLOCK_DIMENSION_18
  1

  0
SOLID
  5
147
330
144
100
AcDbEntity
  8
EBENE_1
 62
     0
100
AcDbTrace
 10
16.8675417449
 20
5.1887726877
 30
0.0
 11
16.3933906031
 21
2.1067902658
 31
0.0
 12
17.3416928867
 22
2.1067902658
 32
0.0
 13
17.3416928867
 23
2.1067902658
 33
0.0
  0
LINE
  5
148
330
144
100
AcDbEntity
  8
EBENE_1
 62
     0
100
AcDbLine
 10
3.5277780844
 20
9.671990294
 30
0.0
 11
2.4694447638
 21
9.671990294
 31
0.0
  0
LINE
  5
149
330
144
100
AcDbEntity
  8
EBENE_1
 62
     0
100
AcDbLine
 10
2.4694447638
 20
9.671990294
 30
0.0
 11
2.4694447638
 21
4.9388883635
 31
0.0
  0
LINE
  5
14A
330
144
100
AcDbEntity
  8
EBENE_1
 62
     0
100
AcDbLine
 10
2.4694447638
 20
4.9388883635
 30
0.0
 11
3.5277780844
 21
4.9388883635
 31
0.0
  0
LINE
  5
14B
330
144
100
AcDbEntity
  8
EBENE_1
 62
     0
100
AcDbLine
 10
11.7592596216
 20
9.671990294
 30
0.0
 11
12.8175929422
 21
9.671990294
 31
0.0
  0
LINE
  5
14C
330
144
100
AcDbEntity
  8
EBENE_1
 62
     0
100
AcDbLine
 10
12.8175929422
 20
9.671990294
 30
0.0
 11
12.8175929422
 21
4.9388883635
 31
0.0
  0
LINE
  5
14D
330
144
100
AcDbEntity
  8
EBENE_1
 62
     0
100
AcDbLine
 10
12.8175929422
 20
4.9388883635
 30
0.0
 11
11.7592596216
 21
4.9388883635
 31
0.0
  0
LINE
  5
14E
330
144
100
AcDbEntity
  8
EBENE_1
 62
     0
100
AcDbLine
 10
24.0750041956
 20
5.1887726877
 30
0.0
 11
15.2870379388
 21
5.1887726877
 31
0.0
  0
LINE
  5
14F
330
144
100
AcDbEntity
  8
EBENE_1
 62
     0
100
AcDbLine
 10
16.8675417449
 20
-20.2112273123
 30
0.0
 11
16.8675417449
 21
5.1887726877
 31
0.0
  0
MTEXT
  5
150
330
144
100
AcDbEntity
  8
EBENE_1
 62
     0
100
AcDbMText
 10
1.190625
 20
4.0927900738
 30
0.0
 40
3.175
 41
0.0
 71
     1
 72
     1
  1

  7
SLDTEXTSTYLE0
 73
     1
 44
1.0
  0
MTEXT
  5
151
330
144
100
AcDbEntity
  8
EBENE_1
 62
     0
100
AcDbMText
 10
3.5277780844
 20
9.0316784373
 30
0.0
 40
3.175
 41
0.0
 71
     1
 72
     1
  1
4,00
  7
SLDTEXTSTYLE0
 73
     1
 44
1.0
  0
MTEXT
  5
152
330
144
100
AcDbEntity
  8
EBENE_1
 62
     0
100
AcDbMText
 10
1.1759259505
 20
4.0927898409
 30
0.0
 40
3.175
 41
0.0
 71
     1
 72
     1
  1
101,60
  7
SLDTEXTSTYLE0
 73
     1
 44
1.0
  0
MTEXT
  5
153
330
144
100
AcDbEntity
  8
EBENE_1
 62
     0
100
AcDbMText
 10
15.3017368719
 20
4.0927900738
 30
0.0
 40
3.175
 41
0.0
 71
     1
 72
     1
  1

  7
SLDTEXTSTYLE0
 73
     1
 44
1.0
  0
ENDBLK
  5
146
330
144
100
AcDbEntity
  8
0
100
AcDbBlockEnd
  0
BLOCK
  5
156
330
155
100
AcDbEntity
  8
0
100
AcDbBlockBegin
  2
SW_BLOCK_DIMENSION_19
 70
     0
 10
0.0
 20
0.0
 30
0.0
  3
SW_BLOCK_DIMENSION_19
  1

  0
SOLID
  5
158
330
155
100
AcDbEntity
  8
EBENE_1
 62
     0
100
AcDbTrace
 10
16.3971707594
 20
5.1887726877
 30
0.0
 11
15.9230196175
 21
2.1067902658
 31
0.0
 12
16.8713219012
 22
2.1067902658
 32
0.0
 13
16.8713219012
 23
2.1067902658
 33
0.0
  0
LINE
  5
159
330
155
100
AcDbEntity
  8
EBENE_1
 62
     0
100
AcDbLine
 10
3.2925925916
 20
9.671990294
 30
0.0
 11
2.2342592711
 21
9.671990294
 31
0.0
  0
LINE
  5
15A
330
155
100
AcDbEntity
  8
EBENE_1
 62
     0
100
AcDbLine
 10
2.2342592711
 20
9.671990294
 30
0.0
 11
2.2342592711
 21
4.9388883635
 31
0.0
  0
LINE
  5
15B
330
155
100
AcDbEntity
  8
EBENE_1
 62
     0
100
AcDbLine
 10
2.2342592711
 20
4.9388883635
 30
0.0
 11
3.2925925916
 21
4.9388883635
 31
0.0
  0
LINE
  5
15C
330
155
100
AcDbEntity
  8
EBENE_1
 62
     0
100
AcDbLine
 10
11.5240741288
 20
9.671990294
 30
0.0
 11
12.5824074494
 21
9.671990294
 31
0.0
  0
LINE
  5
15D
330
155
100
AcDbEntity
  8
EBENE_1
 62
     0
100
AcDbLine
 10
12.5824074494
 20
9.671990294
 30
0.0
 11
12.5824074494
 21
4.9388883635
 31
0.0
  0
LINE
  5
15E
330
155
100
AcDbEntity
  8
EBENE_1
 62
     0
100
AcDbLine
 10
12.5824074494
 20
4.9388883635
 30
0.0
 11
11.5240741288
 21
4.9388883635
 31
0.0
  0
LINE
  5
15F
330
155
100
AcDbEntity
  8
EBENE_1
 62
     0
100
AcDbLine
 10
23.60463321
 20
5.1887726877
 30
0.0
 11
14.8166669533
 21
5.1887726877
 31
0.0
  0
LINE
  5
160
330
155
100
AcDbEntity
  8
EBENE_1
 62
     0
100
AcDbLine
 10
16.3971707594
 20
-20.2112273123
 30
0.0
 11
16.3971707594
 21
5.1887726877
 31
0.0
  0
MTEXT
  5
161
330
155
100
AcDbEntity
  8
EBENE_1
 62
     0
100
AcDbMText
 10
1.190625
 20
4.0927900738
 30
0.0
 40
3.175
 41
0.0
 71
     1
 72
     1
  1

  7
SLDTEXTSTYLE0
 73
     1
 44
1.0
  0
MTEXT
  5
162
330
155
100
AcDbEntity
  8
EBENE_1
 62
     0
100
AcDbMText
 10
3.2925925916
 20
9.0316784373
 30
0.0
 40
3.175
 41
0.0
 71
     1
 72
     1
  1
5,00
  7
SLDTEXTSTYLE0
 73
     1
 44
1.0
  0
MTEXT
  5
163
330
155
100
AcDbEntity
  8
EBENE_1
 62
     0
100
AcDbMText
 10
3.8805556251
 20
4.0927898409
 30
0.0
 40
3.175
 41
0.0
 71
     1
 72
     1
  1
127
  7
SLDTEXTSTYLE0
 73
     1
 44
1.0
  0
MTEXT
  5
164
330
155
100
AcDbEntity
  8
EBENE_1
 62
     0
100
AcDbMText
 10
14.8313658863
 20
4.0927900738
 30
0.0
 40
3.175
 41
0.0
 71
     1
 72
     1
  1

  7
SLDTEXTSTYLE0
 73
     1
 44
1.0
  0
ENDBLK
  5
157
330
155
100
AcDbEntity
  8
0
100
AcDbBlockEnd
  0
BLOCK
  5
167
330
166
100
AcDbEntity
  8
0
100
AcDbBlockBegin
  2
SW_NOTE_0
 70
     0
 10
0.0
 20
0.0
 30
0.0
  3
SW_NOTE_0
  1

  0
MTEXT
  5
169
330
166
100
AcDbEntity
  8
EBENE_1
 62
     0
100
AcDbMText
 10
6.7138020833
 20
4.7749217527
 30
0.0
 40
3.7041666667
 41
0.0
 71
     2
 72
     1
  1
(Inch)
  7
SLDTEXTSTYLE0
 73
     1
 44
1.0
  0
MTEXT
  5
16A
330
166
100
AcDbEntity
  8
EBENE_1
 62
     0
100
AcDbMText
 10
6.7309508326
 20
-1.1639672404
 30
0.0
 40
3.7041666667
 41
0.0
 71
     2
 72
     1
  1
mm
  7
SLDTEXTSTYLE0
 73
     1
 44
1.0
  0
ENDBLK
  5
168
330
166
100
AcDbEntity
  8
0
100
AcDbBlockEnd
  0
BLOCK
  5
172
330
171
100
AcDbEntity
  8
0
100
AcDbBlockBegin
  2
SW_NOTE_1
 70
     0
 10
0.0
 20
0.0
 30
0.0
  3
SW_NOTE_1
  1

  0
MTEXT
  5
174
330
171
100
AcDbEntity
  8
0
  6
Continuous
 62
     0
370
     0
100
AcDbMText
 10
19.893359375
 20
4.0927900738
 30
0.0
 40
3.175
 41
0.0
 71
     2
 72
     1
  1
ABP-Beyerle GmbH
  7
SLDTEXTSTYLE0
 73
     1
 44
1.0
  0
MTEXT
  5
175
330
171
100
AcDbEntity
  8
0
  6
Continuous
 62
     0
370
     0
100
AcDbMText
 10
20.6558884293
 20
-0.1405432084
 30
0.0
 40
3.175
 41
0.0
 71
     2
 72
     1
  1
Im Schollengarten 24b, 76646 Bruchsal
  7
SLDTEXTSTYLE0
 73
     1
 44
1.0
  0
MTEXT
  5
176
330
171
100
AcDbEntity
  8
0
  6
Continuous
 62
     0
370
     0
100
AcDbMText
 10
20.7863491923
 20
-4.3738764906
 30
0.0
 40
3.175
 41
0.0
 71
     2
 72
     1
  1
Tel. +49 (0)7251-9127-0, Fax. +49 (0)7251-9127-29
  7
SLDTEXTSTYLE0
 73
     1
 44
1.0
  0
MTEXT
  5
177
330
171
100
AcDbEntity
  8
0
  6
Continuous
 62
     0
370
     0
100
AcDbMText
 10
20.8392552227
 20
-8.6072097727
 30
0.0
 40
3.175
 41
0.0
 71
     2
 72
     1
  1
info@abp-beyerle.de, www.abp-beyerle.de
  7
SLDTEXTSTYLE0
 73
     1
 44
1.0
  0
ENDBLK
  5
173
330
171
100
AcDbEntity
  8
0
100
AcDbBlockEnd
  0
ENDSEC
  0
SECTION
  2
ENTITIES
  0
INSERT
  5
16D
330
1F
100
AcDbEntity
  8
EBENE_1
100
AcDbBlockReference
  2
Block1
 10
19.561342692
 20
-6.9223244521
 30
0.0
  0
MTEXT
  5
16F
330
1F
100
AcDbEntity
  8
0
  6
Continuous
 62
     7
370
     0
100
AcDbMText
 10
402.5
 20
14.7189135832
 30
0.0
 40
6.35
 41
0.0
 71
     1
 72
     1
  1
1:1
  7
SLDTEXTSTYLE1
 73
     1
 44
1.0
  0
MTEXT
  5
170
330
1F
100
AcDbEntity
  8
0
  6
Continuous
 62
     7
370
     0
100
AcDbMText
 10
168.4090458961
 20
14.7189131175
 30
0.0
 40
6.35
 41
0.0
 71
     1
 72
     1
  1
USU56-1800DB
  7
SLDTEXTSTYLE1
 73
     1
 44
1.0
  0
INSERT
  5
178
330
1F
100
AcDbEntity
  8
0
  6
Continuous
 62
     7
370
     0
100
AcDbBlockReference
  2
SW_NOTE_1
 10
35.4202146835
 20
20.1681939512
 30
0.0
  0
LINE
  5
179
330
1F
100
AcDbEntity
  8
0
  6
Continuous
 62
     7
370
    15
100
AcDbLine
 10
1136.5270550091
 20
2157.8320245269
 30
0.0
 11
1086.1395532925
 21
2157.8320245269
 31
0.0
  0
LINE
  5
17A
330
1F
100
AcDbEntity
  8
0
  6
Continuous
 62
     7
370
    15
100
AcDbLine
 10
1054.9145872433
 20
2157.8320245269
 30
0.0
 11
202.0270759899
 21
2157.8320245269
 31
0.0
  0
LINE
  5
17B
330
1F
100
AcDbEntity
  8
0
  6
Continuous
 62
     7
370
    15
100
AcDbLine
 10
172.0271046002
 20
2157.8320245269
 30
0.0
 11
-548.9729018222
 21
2157.8320245269
 31
0.0
  0
LINE
  5
17C
330
1F
100
AcDbEntity
  8
0
  6
Continuous
 62
     7
370
    15
100
AcDbLine
 10
-578.9729011517
 20
2157.8320245269
 30
0.0
 11
-583.8604075175
 21
2157.8320245269
 31
0.0
  0
LINE
  5
17D
330
1F
100
AcDbEntity
  8
0
  6
Continuous
 62
     7
370
    15
100
AcDbLine
 10
-615.0853996437
 20
2157.8320245269
 30
0.0
 11
-663.4728973072
 21
2157.8320245269
 31
0.0
  0
LINE
  5
17E
330
1F
100
AcDbEntity
  8
0
  6
Continuous
 62
     7
370
    15
100
AcDbLine
 10
-663.4728973072
 20
2132.8320241544
 30
0.0
 11
-615.0853996437
 21
2132.8320241544
 31
0.0
  0
LINE
  5
17F
330
1F
100
AcDbEntity
  8
0
  6
Continuous
 62
     7
370
    15
100
AcDbLine
 10
-583.8604075175
 20
2132.8320241544
 30
0.0
 11
-578.9729011517
 21
2132.8320241544
 31
0.0
  0
LINE
  5
180
330
1F
100
AcDbEntity
  8
0
  6
Continuous
 62
     7
370
    15
100
AcDbLine
 10
-548.9729018222
 20
2132.8320241544
 30
0.0
 11
172.0271046002
 21
2132.8320241544
 31
0.0
  0
LINE
  5
181
330
1F
100
AcDbEntity
  8
0
  6
Continuous
 62
     7
370
    15
100
AcDbLine
 10
202.0270759899
 20
2132.8320241544
 30
0.0
 11
1054.9145872433
 21
2132.8320241544
 31
0.0
  0
LINE
  5
182
330
1F
100
AcDbEntity
  8
0
  6
Continuous
 62
     7
370
    15
100
AcDbLine
 10
1086.1395532925
 20
2132.8320241544
 30
0.0
 11
1136.5270550091
 21
2132.8320241544
 31
0.0
  0
LINE
  5
183
330
1F
100
AcDbEntity
  8
0
  6
Continuous
 62
     7
370
    15
100
AcDbLine
 10
250.1318390209
 20
60.3319861937
 30
0.0
 11
250.0271136601
 21
54.331944232
 31
0.0
  0
LINE
  5
184
330
1F
100
AcDbEntity
  8
0
  6
Continuous
 62
     7
370
    15
100
AcDbLine
 10
278.0271107991
 20
54.331944232
 30
0.0
 11
277.9223854382
 21
60.3319861937
 31
0.0
  0
CIRCLE
  5
185
330
1F
100
AcDbEntity
  8
0
  6
Continuous
 62
     7
370
    15
100
AcDbCircle
 10
-533.4729020755
 20
2145.3320243406
 30
0.0
 40
6.450000000000011
  0
LINE
  5
186
330
1F
100
AcDbEntity
  8
0
  6
Continuous
 62
     7
370
    15
100
AcDbLine
 10
-530.7225458596
 20
2146.2088748474
 30
0.0
 11
-532.8570988417
 21
2148.1523277714
 31
0.0
  0
LINE
  5
187
330
1F
100
AcDbEntity
  8
0
  6
Continuous
 62
     7
370
    15
100
AcDbLine
 10
-532.8570988417
 20
2148.1523277714
 30
0.0
 11
-535.6074549995
 21
2147.2754773229
 31
0.0
  0
LINE
  5
188
330
1F
100
AcDbEntity
  8
0
  6
Continuous
 62
     7
370
    15
100
AcDbLine
 10
-535.6074549995
 20
2147.2754773229
 30
0.0
 11
-536.2232582915
 21
2144.4551738339
 31
0.0
  0
LINE
  5
189
330
1F
100
AcDbEntity
  8
0
  6
Continuous
 62
     7
370
    15
100
AcDbLine
 10
-536.2232582915
 20
2144.4551738339
 30
0.0
 11
-534.0887053094
 21
2142.5117209098
 31
0.0
  0
LINE
  5
18A
330
1F
100
AcDbEntity
  8
0
  6
Continuous
 62
     7
370
    15
100
AcDbLine
 10
-534.0887053094
 20
2142.5117209098
 30
0.0
 11
-531.3383491516
 21
2143.3885713584
 31
0.0
  0
LINE
  5
18B
330
1F
100
AcDbEntity
  8
0
  6
Continuous
 62
     7
370
    15
100
AcDbLine
 10
-531.3383491516
 20
2143.3885713584
 30
0.0
 11
-530.7225458596
 21
2146.2088748474
 31
0.0
  0
CIRCLE
  5
18C
330
1F
100
AcDbEntity
  8
0
  6
Continuous
 62
     7
370
    15
100
AcDbCircle
 10
-533.4729020755
 20
2145.3320243406
 30
0.0
 40
7.449999999999957
  0
CIRCLE
  5
18D
330
1F
100
AcDbEntity
  8
0
  6
Continuous
 62
     7
370
    15
100
AcDbCircle
 10
1006.5269979245
 20
2145.3320243406
 30
0.0
 40
6.4499999999999
  0
LINE
  5
18E
330
1F
100
AcDbEntity
  8
0
  6
Continuous
 62
     7
370
    15
100
AcDbLine
 10
1009.2773372967
 20
2146.2088748474
 30
0.0
 11
1007.142775758
 21
2148.1523277714
 31
0.0
  0
LINE
  5
18F
330
1F
100
AcDbEntity
  8
0
  6
Continuous
 62
     7
370
    15
100
AcDbLine
 10
1007.142775758
 20
2148.1523277714
 30
0.0
 11
1004.3924982388
 21
2147.2754773229
 31
0.0
  0
LINE
  5
190
330
1F
100
AcDbEntity
  8
0
  6
Continuous
 62
     7
370
    15
100
AcDbLine
 10
1004.3924982388
 20
2147.2754773229
 30
0.0
 11
1003.776663049
 21
2144.4551738339
 31
0.0
  0
LINE
  5
191
330
1F
100
AcDbEntity
  8
0
  6
Continuous
 62
     7
370
    15
100
AcDbLine
 10
1003.776663049
 20
2144.4551738339
 30
0.0
 11
1005.9112245877
 21
2142.5117209098
 31
0.0
  0
LINE
  5
192
330
1F
100
AcDbEntity
  8
0
  6
Continuous
 62
     7
370
    15
100
AcDbLine
 10
1005.9112245877
 20
2142.5117209098
 30
0.0
 11
1008.6615021069
 21
2143.3885713584
 31
0.0
  0
LINE
  5
193
330
1F
100
AcDbEntity
  8
0
  6
Continuous
 62
     7
370
    15
100
AcDbLine
 10
1008.6615021069
 20
2143.3885713584
 30
0.0
 11
1009.2773372967
 21
2146.2088748474
 31
0.0
  0
CIRCLE
  5
194
330
1F
100
AcDbEntity
  8
0
  6
Continuous
 62
     7
370
    15
100
AcDbCircle
 10
1006.5269979245
 20
2145.3320243406
 30
0.0
 40
7.449999999999847
  0
CIRCLE
  5
195
330
1F
100
AcDbEntity
  8
0
  6
Continuous
 62
     7
370
    15
100
AcDbCircle
 10
493.1936979245
 20
2145.3320243406
 30
0.0
 40
6.4499999999999
  0
CIRCLE
  5
196
330
1F
100
AcDbEntity
  8
0
  6
Continuous
 62
     7
370
    15
100
AcDbCircle
 10
493.1936979245
 20
2145.3320243406
 30
0.0
 40
7.449999999999902
  0
LINE
  5
197
330
1F
100
AcDbEntity
  8
0
  6
Continuous
 62
     7
370
    15
100
AcDbLine
 10
495.944016679
 20
2146.2088748474
 30
0.0
 11
493.8094551403
 21
2148.1523277714
 31
0.0
  0
LINE
  5
198
330
1F
100
AcDbEntity
  8
0
  6
Continuous
 62
     7
370
    15
100
AcDbLine
 10
493.8094551403
 20
2148.1523277714
 30
0.0
 11
491.0591776211
 21
2147.2754773229
 31
0.0
  0
LINE
  5
199
330
1F
100
AcDbEntity
  8
0
  6
Continuous
 62
     7
370
    15
100
AcDbLine
 10
491.0591776211
 20
2147.2754773229
 30
0.0
 11
490.4433424313
 21
2144.4551738339
 31
0.0
  0
LINE
  5
19A
330
1F
100
AcDbEntity
  8
0
  6
Continuous
 62
     7
370
    15
100
AcDbLine
 10
490.4433424313
 20
2144.4551738339
 30
0.0
 11
492.57790397
 21
2142.5117209098
 31
0.0
  0
LINE
  5
19B
330
1F
100
AcDbEntity
  8
0
  6
Continuous
 62
     7
370
    15
100
AcDbLine
 10
492.57790397
 20
2142.5117209098
 30
0.0
 11
495.3283006985
 21
2143.3885713584
 31
0.0
  0
LINE
  5
19C
330
1F
100
AcDbEntity
  8
0
  6
Continuous
 62
     7
370
    15
100
AcDbLine
 10
495.3283006985
 20
2143.3885713584
 30
0.0
 11
495.944016679
 21
2146.2088748474
 31
0.0
  0
CIRCLE
  5
19D
330
1F
100
AcDbEntity
  8
0
  6
Continuous
 62
     7
370
    15
100
AcDbCircle
 10
-20.1396020755
 20
2145.3320243406
 30
0.0
 40
6.449999999999942
  0
LINE
  5
19E
330
1F
100
AcDbEntity
  8
0
  6
Continuous
 62
     7
370
    15
100
AcDbLine
 10
-17.389244334
 20
2146.2088748474
 30
0.0
 11
-19.5238058727
 21
2148.1523277714
 31
0.0
  0
LINE
  5
19F
330
1F
100
AcDbEntity
  8
0
  6
Continuous
 62
     7
370
    15
100
AcDbLine
 10
-22.2741429966
 20
2147.2754773229
 30
0.0
 11
-22.8899781864
 21
2144.4551738339
 31
0.0
  0
LINE
  5
1A0
330
1F
100
AcDbEntity
  8
0
  6
Continuous
 62
     7
370
    15
100
AcDbLine
 10
-20.7554166477
 20
2142.5117209098
 30
0.0
 11
-18.0050199192
 21
2143.3885713584
 31
0.0
  0
LINE
  5
1A1
330
1F
100
AcDbEntity
  8
0
  6
Continuous
 62
     7
370
    15
100
AcDbLine
 10
-18.0050199192
 20
2143.3885713584
 30
0.0
 11
-17.389244334
 21
2146.2088748474
 31
0.0
  0
LINE
  5
1A2
330
1F
100
AcDbEntity
  8
0
  6
Continuous
 62
     7
370
    15
100
AcDbLine
 10
-19.5238058727
 20
2148.1523277714
 30
0.0
 11
-22.2741429966
 21
2147.2754773229
 31
0.0
  0
LINE
  5
1A3
330
1F
100
AcDbEntity
  8
0
  6
Continuous
 62
     7
370
    15
100
AcDbLine
 10
-22.8899781864
 20
2144.4551738339
 30
0.0
 11
-20.7554166477
 21
2142.5117209098
 31
0.0
  0
CIRCLE
  5
1A4
330
1F
100
AcDbEntity
  8
0
  6
Continuous
 62
     7
370
    15
100
AcDbCircle
 10
-20.1396020755
 20
2145.3320243406
 30
0.0
 40
7.450000000000037
  0
LINE
  5
1A5
330
1F
100
AcDbEntity
  8
0
  6
Continuous
 62
     7
370
    15
100
AcDbLine
 10
1136.5270550091
 20
2145.3320243406
 30
0.0
 11
1136.5270550091
 21
2157.8320245269
 31
0.0
  0
LINE
  5
1A6
330
1F
100
AcDbEntity
  8
0
  6
Continuous
 62
     7
370
    15
100
AcDbLine
 10
1136.5270550091
 20
2132.8320241544
 30
0.0
 11
1136.5270550091
 21
2145.3320243406
 31
0.0
  0
SPLINE
  5
1A7
330
1F
100
AcDbEntity
  8
0
  6
Continuous
 62
     7
370
    15
100
AcDbSpline
210
0.0
220
0.0
230
1.0
 70
    11
 71
     3
 72
    28
 73
    24
 74
     0
 42
0.000000001
 43
0.00000001
 40
0.0
 40
0.0
 40
0.0
 40
0.0
 40
0.0475549915920394
 40
0.0949663665436736
 40
0.1460687887507443
 40
0.2034571310172821
 40
0.2467859918733529
 40
0.2901846749500742
 40
0.3330335307660398
 40
0.3834821964231762
 40
0.4410917761296386
 40
0.4950480638294963
 40
0.5415898843372653
 40
0.5869404062421152
 40
0.6370238606651308
 40
0.6937077601519673
 40
0.7381321705706725
 40
0.7826958170678092
 40
0.8249698843131371
 40
0.8737312130598883
 40
0.9306925706661716
 40
0.986018896201616
 40
1.0
 40
1.0
 40
1.0
 40
1.0
 10
1014.077060921887
 20
2145.33202434063
 30
0.0
 10
1014.007105293264
 20
2144.559225208666
 30
0.0
 10
1013.86740530285
 20
2143.015960807311
 30
0.0
 10
1012.794443812846
 20
2140.93028228309
 30
0.0
 10
1011.140129487524
 20
2139.178951419344
 30
0.0
 10
1009.012019646155
 20
2138.065413143952
 30
0.0
 10
1006.686565596429
 20
2137.682929093627
 30
0.0
 10
1004.571828264878
 20
2137.940825989945
 30
0.0
 10
1002.57665377674
 20
2138.776611858873
 30
0.0
 10
1000.760655627826
 20
2140.247930499812
 30
0.0
 10
999.3901102107627
 20
2142.417565047596
 30
0.0
 10
998.8498667887164
 20
2144.967286190602
 30
0.0
 10
999.1386477660498
 20
2147.351279811108
 30
0.0
 10
1000.054250014335
 20
2149.428865644609
 30
0.0
 10
1001.594744885173
 20
2151.2236682252
 30
0.0
 10
1003.62909938556
 20
2152.442344374489
 30
0.0
 10
1005.937871097984
 20
2152.965152511598
 30
0.0
 10
1008.101505673957
 20
2152.816360922321
 30
0.0
 10
1010.131651013794
 20
2152.079277359885
 30
0.0
 10
1011.990836762702
 20
2150.731590945224
 30
0.0
 10
1013.466485851671
 20
2148.67994792229
 30
0.0
 10
1014.039598223984
 20
2146.67922173918
 30
0.0
 10
1014.070772302694
 20
2145.558169596858
 30
0.0
 10
1014.077060921887
 20
2145.33202434063
 30
0.0
  0
SPLINE
  5
1A8
330
1F
100
AcDbEntity
  8
0
  6
Continuous
 62
     7
370
    15
100
AcDbSpline
210
0.0
220
0.0
230
1.0
 70
     8
 71
     3
 72
    21
 73
    17
 74
     0
 42
0.000000001
 43
0.00000001
 40
0.0
 40
0.0
 40
0.0
 40
0.0
 40
0.0339527798336347
 40
0.1041653110783589
 40
0.1744949104251425
 40
0.2439315448761844
 40
0.3256836824553677
 40
0.4190400918805479
 40
0.506476336186383
 40
0.5818974254020214
 40
0.655388013463365
 40
0.7365483256955666
 40
0.8284046689508404
 40
0.9003964122140543
 40
0.9726079003348841
 40
1.0
 40
1.0
 40
1.0
 40
1.0
 10
-17.3857276599616
 20
2138.563704584837
 30
0.0
 10
-17.66801700191078
 20
2138.400634371824
 30
0.0
 10
-18.534065592404
 20
2137.900343687254
 30
0.0
 10
-20.32779114399974
 20
2137.706406408491
 30
0.0
 10
-22.42438779872613
 20
2137.934648373074
 30
0.0
 10
-24.42455888851436
 20
2138.778576073103
 30
0.0
 10
-26.23895374581109
 20
2140.247280347302
 30
0.0
 10
-27.61001044300426
 20
2142.417726995874
 30
0.0
 10
-28.1501034996684
 20
2144.96728259055
 30
0.0
 10
-27.86141932315256
 20
2147.351180710588
 30
0.0
 10
-26.94556278133997
 20
2149.429275151951
 30
0.0
 10
-25.40612769711759
 20
2151.221851802557
 30
0.0
 10
-23.36755547752223
 20
2152.449393109129
 30
0.0
 10
-21.07161993908402
 20
2152.945162358524
 30
0.0
 10
-19.29029992849429
 20
2152.900770777966
 30
0.0
 10
-18.39018790794922
 20
2152.544340971167
 30
0.0
 10
-18.14264704396429
 20
2152.446318791359
 30
0.0
  0
SPLINE
  5
1A9
330
1F
100
AcDbEntity
  8
0
  6
Continuous
 62
     7
370
    15
100
AcDbSpline
210
0.0
220
0.0
230
1.0
 70
    11
 71
     3
 72
    28
 73
    24
 74
     0
 42
0.000000001
 43
0.00000001
 40
0.0
 40
0.0
 40
0.0
 40
0.0
 40
0.0475551017581474
 40
0.0949664478301205
 40
0.1460694109748622
 40
0.2034572620135131
 40
0.2467854039304365
 40
0.2901854595561459
 40
0.333033782865396
 40
0.3834830941484342
 40
0.441092420271515
 40
0.4950486988046695
 40
0.5415905724712683
 40
0.5869408337005682
 40
0.637024723295297
 40
0.6937086281078344
 40
0.7381340333147136
 40
0.7826955103207694
 40
0.8249696366384035
 40
0.8737310939239797
 40
0.9306923259971397
 40
0.9860188322291134
 40
1.0
 40
1.0
 40
1.0
 40
1.0
 10
-525.9229018624634
 20
2145.33202434063
 30
0.0
 10
-525.9928700329401
 20
2144.55922626045
 30
0.0
 10
-526.1325948650965
 20
2143.015966213654
 30
0.0
 10
-527.2055334416767
 20
2140.930267091936
 30
0.0
 10
-528.8598932617492
 20
2139.178972719558
 30
0.0
 10
-530.9879672601538
 20
2138.065410981482
 30
0.0
 10
-533.3134231629748
 20
2137.682931482627
 30
0.0
 10
-535.4281695613307
 20
2137.940810092456
 30
0.0
 10
-537.4233447765671
 20
2138.776631602882
 30
0.0
 10
-539.2393834100689
 20
2140.247907650562
 30
0.0
 10
-540.6098885472938
 20
2142.417573518514
 30
0.0
 10
-541.1501388207045
 20
2144.967288866253
 30
0.0
 10
-540.8613218054577
 20
2147.351268901202
 30
0.0
 10
-539.9457847535358
 20
2149.428884700369
 30
0.0
 10
-538.4052355197404
 20
2151.223655829241
 30
0.0
 10
-536.3708809206418
 20
2152.442355429101
 30
0.0
 10
-534.0621181854839
 20
2152.965145965853
 30
0.0
 10
-531.898508612626
 20
2152.816350961515
 30
0.0
 10
-529.8683940903015
 20
2152.079275280816
 30
0.0
 10
-528.0092054042866
 20
2150.731597328354
 30
0.0
 10
-526.533549829169
 20
2148.679939296969
 30
0.0
 10
-525.9604981460553
 20
2146.679220578676
 30
0.0
 10
-525.9292129113057
 20
2145.558169598786
 30
0.0
 10
-525.9229018624634
 20
2145.33202434063
 30
0.0
  0
SPLINE
  5
1AA
330
1F
100
AcDbEntity
  8
0
  6
Continuous
 62
     7
370
    15
100
AcDbSpline
210
0.0
220
0.0
230
1.0
 70
    11
 71
     3
 72
    28
 73
    24
 74
     0
 42
0.000000001
 43
0.00000001
 40
0.0
 40
0.0
 40
0.0
 40
0.0
 40
0.0475549953098911
 40
0.0949663739681498
 40
0.1460688001704114
 40
0.2034571469235735
 40
0.2467860111670976
 40
0.2901846976367308
 40
0.3330335568026229
 40
0.3834822264038392
 40
0.4410918106142224
 40
0.4950481025323863
 40
0.541589926678798
 40
0.5869404521291547
 40
0.6370239104676981
 40
0.6937078143860858
 40
0.7381345982132355
 40
0.7826958000789531
 40
0.8249698706292704
 40
0.8737312031881855
 40
0.9306925652477116
 40
0.9860188951085719
 40
0.9999999999999999
 40
0.9999999999999999
 40
0.9999999999999999
 40
0.9999999999999999
 10
501.0770494777947
 20
2145.33202434063
 30
0.0
 10
501.0070938491722
 20
2144.559225208666
 30
0.0
 10
500.8673938587578
 20
2143.015960807311
 30
0.0
 10
499.7944323687542
 20
2140.93028228309
 30
0.0
 10
498.1401180434331
 20
2139.178951419342
 30
0.0
 10
496.0120082020592
 20
2138.065413143963
 30
0.0
 10
493.6865541523481
 20
2137.682929093599
 30
0.0
 10
491.5718168207428
 20
2137.940825990049
 30
0.0
 10
489.5766423328189
 20
2138.776611858459
 30
0.0
 10
487.7606441829234
 20
2140.247930501779
 30
0.0
 10
486.3900987700623
 20
2142.417565039366
 30
0.0
 10
485.8498553335897
 20
2144.967286217382
 30
0.0
 10
486.138636356578
 20
2147.351279727085
 30
0.0
 10
487.054238438547
 20
2149.428865964239
 30
0.0
 10
488.5947340216441
 20
2151.223666816154
 30
0.0
 10
490.629117581185
 20
2152.442368935296
 30
0.0
 10
492.9379048619726
 20
2152.965140568046
 30
0.0
 10
495.1015304611728
 20
2152.816351256079
 30
0.0
 10
497.1316396984728
 20
2152.079276246416
 30
0.0
 10
498.9908252750454
 20
2150.731591321919
 30
0.0
 10
500.4664744200678
 20
2148.679947814303
 30
0.0
 10
501.0395867792676
 20
2146.679221744571
 30
0.0
 10
501.0707608584977
 20
2145.558169597763
 30
0.0
 10
501.0770494777947
 20
2145.33202434063
 30
0.0
  0
LINE
  5
1AB
330
1F
100
AcDbEntity
  8
0
  6
Continuous
 62
     7
370
    15
100
AcDbLine
 10
-663.4728973072
 20
2145.3320243406
 30
0.0
 11
-663.4728973072
 21
2157.8320245269
 31
0.0
  0
LINE
  5
1AC
330
1F
100
AcDbEntity
  8
0
  6
Continuous
 62
     7
370
    15
100
AcDbLine
 10
-663.4728973072
 20
2132.8320241544
 30
0.0
 11
-663.4728973072
 21
2145.3320243406
 31
0.0
  0
LINE
  5
1AD
330
1F
100
AcDbEntity
  8
0
  6
Continuous
 62
     7
370
    15
100
AcDbLine
 10
286.5270907719
 20
2110.3320241916
 30
0.0
 11
-663.4728973072
 21
2110.3320241916
 31
0.0
  0
LINE
  5
1AE
330
1F
100
AcDbEntity
  8
0
  6
Continuous
 62
     7
370
    15
100
AcDbLine
 10
286.5270907719
 20
60.3319861937
 30
0.0
 11
286.5270907719
 21
2110.3320241916
 31
0.0
  0
LINE
  5
1AF
330
1F
100
AcDbEntity
  8
0
  6
Continuous
 62
     7
370
    15
100
AcDbLine
 10
-663.4728973072
 20
60.3319861937
 30
0.0
 11
286.5270907719
 21
60.3319861937
 31
0.0
  0
LINE
  5
1B0
330
1F
100
AcDbEntity
  8
0
  6
Continuous
 62
     7
370
    15
100
AcDbLine
 10
-663.4728973072
 20
2110.3320241916
 30
0.0
 11
-663.4728973072
 21
60.3319861937
 31
0.0
  0
CIRCLE
  5
1B1
330
1F
100
AcDbEntity
  8
0
  6
Continuous
 62
     7
370
    15
100
AcDbCircle
 10
-563.9729020755
 20
2183.8320243406
 30
0.0
 40
12.33393612946668
  0
CIRCLE
  5
1B2
330
1F
100
AcDbEntity
  8
0
  6
Continuous
 62
     7
370
    15
100
AcDbCircle
 10
-563.9729020755
 20
2183.8320243406
 30
0.0
 40
12.49999999999989
  0
CIRCLE
  5
1B3
330
1F
100
AcDbEntity
  8
0
  6
Continuous
 62
     7
370
    15
100
AcDbCircle
 10
187.0270979244
 20
2183.8320243406
 30
0.0
 40
12.33393612946676
  0
CIRCLE
  5
1B4
330
1F
100
AcDbEntity
  8
0
  6
Continuous
 62
     7
370
    15
100
AcDbCircle
 10
187.0270979244
 20
2183.8320243406
 30
0.0
 40
12.49999999999997
  0
ARC
  5
1B5
330
1F
100
AcDbEntity
  8
0
  6
Continuous
 62
     7
370
    15
100
AcDbCircle
 10
187.0270979244
 20
2183.8320243406
 30
0.0
 40
29.0000000000002
100
AcDbArc
 50
301.1473899215
 51
151.2090893295
  0
ARC
  5
1B6
330
1F
100
AcDbEntity
  8
0
  6
Continuous
 62
     7
370
    15
100
AcDbCircle
 10
187.0270979244
 20
2183.8320243406
 30
0.0
 40
29.0000000000002
100
AcDbArc
 50
151.2090893295
 51
238.8526100785
  0
ARC
  5
1B7
330
1F
100
AcDbEntity
  8
0
  6
Continuous
 62
     7
370
    15
100
AcDbCircle
 10
-563.9729020755
 20
2183.8320243406
 30
0.0
 40
29.00000000000013
100
AcDbArc
 50
301.1473899215
 51
151.2090893295
  0
ARC
  5
1B8
330
1F
100
AcDbEntity
  8
0
  6
Continuous
 62
     7
370
    15
100
AcDbCircle
 10
-563.9729020755
 20
2183.8320243406
 30
0.0
 40
29.00000000000013
100
AcDbArc
 50
151.2090893295
 51
238.8526100785
  0
ARC
  5
1B9
330
1F
100
AcDbEntity
  8
0
  6
Continuous
 62
     7
370
    15
100
AcDbCircle
 10
187.0270979244
 20
2183.8320243406
 30
0.0
 40
15.00000000000003
100
AcDbArc
 50
0.0
 51
180.0
  0
LINE
  5
1BA
330
1F
100
AcDbEntity
  8
0
  6
Continuous
 62
     7
370
    15
100
AcDbLine
 10
202.0270759899
 20
2183.832024132
 30
0.0
 11
202.0270759899
 21
2110.3320241916
 31
0.0
  0
LINE
  5
1BB
330
1F
100
AcDbEntity
  8
0
  6
Continuous
 62
     7
370
    15
100
AcDbLine
 10
172.0271046002
 20
2110.3320241916
 30
0.0
 11
172.0271046002
 21
2183.832024132
 31
0.0
  0
ARC
  5
1BC
330
1F
100
AcDbEntity
  8
0
  6
Continuous
 62
     7
370
    15
100
AcDbCircle
 10
-563.9729020755
 20
2183.8320243406
 30
0.0
 40
15.00000000000011
100
AcDbArc
 50
0.0
 51
180.0
  0
LINE
  5
1BD
330
1F
100
AcDbEntity
  8
0
  6
Continuous
 62
     7
370
    15
100
AcDbLine
 10
-578.9729011517
 20
2110.3320241916
 30
0.0
 11
-578.9729011517
 21
2183.832024132
 31
0.0
  0
LINE
  5
1BE
330
1F
100
AcDbEntity
  8
0
  6
Continuous
 62
     7
370
    15
100
AcDbLine
 10
-548.9729018222
 20
2183.832024132
 30
0.0
 11
-548.9729018222
 21
2110.3320241916
 31
0.0
  0
LINE
  5
1BF
330
1F
100
AcDbEntity
  8
0
  6
Continuous
 62
     7
370
    15
100
AcDbLine
 10
237.027102216
 20
54.331944232
 30
0.0
 11
237.027102216
 21
50.3319957304
 31
0.0
  0
LINE
  5
1C0
330
1F
100
AcDbEntity
  8
0
  6
Continuous
 62
     7
370
    15
100
AcDbLine
 10
301.5270764668
 20
54.331944232
 30
0.0
 11
301.5270764668
 21
50.3319957304
 31
0.0
  0
LINE
  5
1C1
330
1F
100
AcDbEntity
  8
0
  6
Continuous
 62
     7
370
    15
100
AcDbLine
 10
237.027102216
 20
50.3319957304
 30
0.0
 11
301.5270764668
 21
50.3319957304
 31
0.0
  0
LINE
  5
1C2
330
1F
100
AcDbEntity
  8
0
  6
Continuous
 62
     7
370
    15
100
AcDbLine
 10
237.027102216
 20
54.331944232
 30
0.0
 11
301.5270764668
 21
54.331944232
 31
0.0
  0
SPLINE
  5
1C3
330
1F
100
AcDbEntity
  8
0
  6
Continuous
 62
     7
370
    15
100
AcDbSpline
210
0.0
220
0.0
230
1.0
 70
    24
 71
     3
 72
     9
 73
     5
 74
     0
 42
0.000000001
 43
0.00000001
 40
0.0
 40
0.0
 40
0.0
 40
0.0
 40
0.5
 40
1.0
 40
1.0
 40
1.0
 40
1.0
 10
-597.1819897453994
 20
2143.575587916299
 30
0.0
 10
-597.1193800331165
 20
2144.052621855201
 30
0.0
 10
-596.9941606085509
 20
2145.006689733006
 30
0.0
 10
-596.8689411839854
 20
2145.96075761081
 30
0.0
 10
-596.8063314717025
 20
2146.437791549712
 30
0.0
  0
SPLINE
  5
1C4
330
1F
100
AcDbEntity
  8
0
  6
Continuous
 62
     7
370
    15
100
AcDbSpline
210
0.0
220
0.0
230
1.0
 70
     8
 71
     3
 72
    14
 73
    10
 74
     0
 42
0.000000001
 43
0.00000001
 40
0.0
 40
0.0
 40
0.0
 40
0.0
 40
0.1719854360862274
 40
0.343691072945279
 40
0.5228379540246741
 40
0.7237746395153418
 40
0.9514044549476575
 40
0.9912635706637682
 40
1.0
 40
1.0
 40
1.0
 40
1.0
 10
-596.8063314717025
 20
2146.437791549712
 30
0.0
 10
-596.8044314771874
 20
2146.438578342314
 30
0.0
 10
-596.8006345792154
 20
2146.440150647503
 30
0.0
 10
-596.7714141603165
 20
2146.452269434611
 30
0.0
 10
-596.7274986232185
 20
2146.470477957418
 30
0.0
 10
-596.6677645007328
 20
2146.495256117576
 30
0.0
 10
-596.617164497522
 20
2146.516223012226
 30
0.0
 10
-596.5875274052463
 20
2146.528525898791
 30
0.0
 10
-596.582319763772
 20
2146.530683329526
 30
0.0
 10
-596.5813835423202
 20
2146.531071188971
 30
0.0
  0
SPLINE
  5
1C5
330
1F
100
AcDbEntity
  8
0
  6
Continuous
 62
     7
370
    15
100
AcDbSpline
210
0.0
220
0.0
230
1.0
 70
     8
 71
     3
 72
     9
 73
     5
 74
     0
 42
0.000000001
 43
0.00000001
 40
0.0
 40
0.0
 40
0.0
 40
0.0
 40
0.5000001512645639
 40
1.0
 40
1.0
 40
1.0
 40
1.0
 10
-596.5813835423202
 20
2146.531071188971
 30
0.0
 10
-596.648787692849
 20
2146.013731714839
 30
0.0
 10
-596.7835959531232
 20
2144.979053079595
 30
0.0
 10
-596.92035638875
 20
2143.944630666852
 30
0.0
 10
-596.9887365858764
 20
2143.427419616952
 30
0.0
  0
SPLINE
  5
1C6
330
1F
100
AcDbEntity
  8
0
  6
Continuous
 62
     7
370
    15
100
AcDbSpline
210
0.0
220
0.0
230
1.0
 70
     8
 71
     3
 72
    14
 73
    10
 74
     0
 42
0.000000001
 43
0.00000001
 40
0.0
 40
0.0
 40
0.0
 40
0.0
 40
0.1719800398274986
 40
0.3436871140597566
 40
0.5228285806790214
 40
0.7237833561243568
 40
0.9513906038995359
 40
0.9912634704018112
 40
1.0
 40
1.0
 40
1.0
 40
1.0
 10
-597.1819897453994
 20
2143.575587916299
 30
0.0
 10
-597.1803615584015
 20
2143.574337986126
 30
0.0
 10
-597.1771077686532
 20
2143.571840109661
 30
0.0
 10
-597.1519969958586
 20
2143.552591984476
 30
0.0
 10
-597.114273229395
 20
2143.523663917782
 30
0.0
 10
-597.0629465261317
 20
2143.484318227288
 30
0.0
 10
-597.0194777209896
 20
2143.450994981952
 30
0.0
 10
-596.9940180776194
 20
2143.431463557432
 30
0.0
 10
-596.9895412098907
 20
2143.428035702669
 30
0.0
 10
-596.9887365858764
 20
2143.427419616952
 30
0.0
  0
CIRCLE
  5
1C7
330
1F
100
AcDbEntity
  8
0
  6
Continuous
 62
     7
370
    15
100
AcDbCircle
 10
-599.4729020755
 20
2145.3320243406
 30
0.0
 40
14.83208158365307
  0
SPLINE
  5
1C8
330
1F
100
AcDbEntity
  8
0
  6
Continuous
 62
     7
370
    15
100
AcDbSpline
210
0.0
220
0.0
230
1.0
 70
     8
 71
     3
 72
     9
 73
     5
 74
     0
 42
0.000000001
 43
0.00000001
 40
0.0
 40
0.0
 40
0.0
 40
0.0
 40
0.5000001512645639
 40
1.0
 40
1.0
 40
1.0
 40
1.0
 10
-602.3644198935241
 20
2144.132977492287
 30
0.0
 10
-602.2970157429952
 20
2144.65031696642
 30
0.0
 10
-602.1622074827211
 20
2145.684995601664
 30
0.0
 10
-602.0254470470943
 20
2146.719418014406
 30
0.0
 10
-601.9570668499679
 20
2147.236629064306
 30
0.0
  0
SPLINE
  5
1C9
330
1F
100
AcDbEntity
  8
0
  6
Continuous
 62
     7
370
    15
100
AcDbSpline
210
0.0
220
0.0
230
1.0
 70
     8
 71
     3
 72
     9
 73
     5
 74
     0
 42
0.000000001
 43
0.00000001
 40
0.0
 40
0.0
 40
0.0
 40
0.0
 40
0.499999654431701
 40
0.9999999999999999
 40
0.9999999999999999
 40
0.9999999999999999
 40
0.9999999999999999
 10
-599.8802547614783
 20
2142.22837276861
 30
0.0
 10
-600.2945823122914
 20
2142.545414970502
 30
0.0
 10
-601.1232379866318
 20
2143.179499812527
 30
0.0
 10
-601.9506924005987
 20
2143.815151452593
 30
0.0
 10
-602.3644198935241
 20
2144.132977492287
 30
0.0
  0
SPLINE
  5
1CA
330
1F
100
AcDbEntity
  8
0
  6
Continuous
 62
     7
370
    15
100
AcDbSpline
210
0.0
220
0.0
230
1.0
 70
     8
 71
     3
 72
     9
 73
     5
 74
     0
 42
0.000000001
 43
0.00000001
 40
0.0
 40
0.0
 40
0.0
 40
0.0
 40
0.5000006406973072
 40
1.0
 40
1.0
 40
1.0
 40
1.0
 10
-596.9887365858764
 20
2143.427419616952
 30
0.0
 10
-597.4704678457239
 20
2143.227122313356
 30
0.0
 10
-598.4339291308445
 20
2142.826528219483
 30
0.0
 10
-599.3981466297815
 20
2142.427757748574
 30
0.0
 10
-599.8802547614783
 20
2142.22837276861
 30
0.0
  0
SPLINE
  5
1CB
330
1F
100
AcDbEntity
  8
0
  6
Continuous
 62
     7
370
    15
100
AcDbSpline
210
0.0
220
0.0
230
1.0
 70
     8
 71
     3
 72
     9
 73
     5
 74
     0
 42
0.000000001
 43
0.00000001
 40
0.0
 40
0.0
 40
0.0
 40
0.0
 40
0.499999654431701
 40
0.9999999999999999
 40
0.9999999999999999
 40
0.9999999999999999
 40
0.9999999999999999
 10
-599.0655486743659
 20
2148.435675912648
 30
0.0
 10
-598.6512211235529
 20
2148.118633710756
 30
0.0
 10
-597.8225654492124
 20
2147.484548868732
 30
0.0
 10
-596.9951110352456
 20
2146.848897228665
 30
0.0
 10
-596.5813835423202
 20
2146.531071188971
 30
0.0
  0
SPLINE
  5
1CC
330
1F
100
AcDbEntity
  8
0
  6
Continuous
 62
     7
370
    15
100
AcDbSpline
210
0.0
220
0.0
230
1.0
 70
     8
 71
     3
 72
     9
 73
     5
 74
     0
 42
0.000000001
 43
0.00000001
 40
0.0
 40
0.0
 40
0.0
 40
0.0
 40
0.5000006406973072
 40
1.0
 40
1.0
 40
1.0
 40
1.0
 10
-601.9570668499679
 20
2147.236629064306
 30
0.0
 10
-601.4753355901204
 20
2147.436926367902
 30
0.0
 10
-600.5118743049998
 20
2147.837520461775
 30
0.0
 10
-599.5476568060627
 20
2148.236290932685
 30
0.0
 10
-599.0655486743659
 20
2148.435675912648
 30
0.0
  0
SPLINE
  5
1CD
330
1F
100
AcDbEntity
  8
0
  6
Continuous
 62
     7
370
    15
100
AcDbSpline
210
0.0
220
0.0
230
1.0
 70
     8
 71
     3
 72
     9
 73
     5
 74
     0
 42
0.000000001
 43
0.00000001
 40
0.0
 40
0.0
 40
0.0
 40
0.0
 40
0.5000000245314602
 40
1.0
 40
1.0
 40
1.0
 40
1.0
 10
-602.1394719641418
 20
2144.226257131546
 30
0.0
 10
-601.7576545531847
 20
2143.933517676465
 30
0.0
 10
-600.9940197687365
 20
2143.348038795028
 30
0.0
 10
-600.2303848718898
 20
2142.762560060245
 30
0.0
 10
-599.8485674421996
 20
2142.469820707217
 30
0.0
  0
SPLINE
  5
1CE
330
1F
100
AcDbEntity
  8
0
  6
Continuous
 62
     7
370
    15
100
AcDbSpline
210
0.0
220
0.0
230
1.0
 70
     8
 71
     3
 72
    14
 73
    10
 74
     0
 42
0.000000001
 43
0.00000001
 40
0.0
 40
0.0
 40
0.0
 40
0.0
 40
0.1719818508327114
 40
0.3436884514612368
 40
0.5228332550687177
 40
0.7237801531692101
 40
0.9513957350005205
 40
0.9912701611157818
 40
0.9999999999999999
 40
0.9999999999999999
 40
0.9999999999999999
 40
0.9999999999999999
 10
-599.8485674421996
 20
2142.469820707217
 30
0.0
 10
-599.8488319638276
 20
2142.467783950931
 30
0.0
 10
-599.8493605837272
 20
2142.463713698108
 30
0.0
 10
-599.8534911729761
 20
2142.432347155553
 30
0.0
 10
-599.8596625037924
 20
2142.385209551849
 30
0.0
 10
-599.8680985928353
 20
2142.321091212641
 30
0.0
 10
-599.8752037325444
 20
2142.266781322952
 30
0.0
 10
-599.8793905798096
 20
2142.234966864229
 30
0.0
 10
-599.8801231789432
 20
2142.229376802657
 30
0.0
 10
-599.8802547614783
 20
2142.22837276861
 30
0.0
  0
SPLINE
  5
1CF
330
1F
100
AcDbEntity
  8
0
  6
Continuous
 62
     7
370
    15
100
AcDbSpline
210
0.0
220
0.0
230
1.0
 70
     8
 71
     3
 72
    14
 73
    10
 74
     0
 42
0.000000001
 43
0.00000001
 40
0.0
 40
0.0
 40
0.0
 40
0.0
 40
0.0087364293362316
 40
0.0485955450523425
 40
0.276225360484658
 40
0.4771620459753258
 40
0.656308927054721
 40
0.8280145639137725
 40
1.0
 40
1.0
 40
1.0
 40
1.0
 10
-602.3644198935241
 20
2144.132977492287
 30
0.0
 10
-602.3634836720721
 20
2144.133365351733
 30
0.0
 10
-602.3582760305978
 20
2144.135522782467
 30
0.0
 10
-602.3286389383222
 20
2144.147825669033
 30
0.0
 10
-602.2780389351115
 20
2144.168792563683
 30
0.0
 10
-602.2183048126258
 20
2144.193570723841
 30
0.0
 10
-602.1743892755278
 20
2144.211779246648
 30
0.0
 10
-602.1451688566289
 20
2144.223898033755
 30
0.0
 10
-602.1413719586568
 20
2144.225470338944
 30
0.0
 10
-602.1394719641418
 20
2144.226257131546
 30
0.0
  0
SPLINE
  5
1D0
330
1F
100
AcDbEntity
  8
0
  6
Continuous
 62
     7
370
    15
100
AcDbSpline
210
0.0
220
0.0
230
1.0
 70
     8
 71
     3
 72
     9
 73
     5
 74
     0
 42
0.000000001
 43
0.00000001
 40
0.0
 40
0.0
 40
0.0
 40
0.0
 40
0.5000000245314602
 40
1.0
 40
1.0
 40
1.0
 40
1.0
 10
-596.8063314717025
 20
2146.437791549712
 30
0.0
 10
-597.1881488826596
 20
2146.730531004794
 30
0.0
 10
-597.9517836671077
 20
2147.31600988623
 30
0.0
 10
-598.7154185639545
 20
2147.901488621013
 30
0.0
 10
-599.0972359936446
 20
2148.194227974042
 30
0.0
  0
SPLINE
  5
1D1
330
1F
100
AcDbEntity
  8
0
  6
Continuous
 62
     7
370
    15
100
AcDbSpline
210
0.0
220
0.0
230
1.0
 70
     8
 71
     3
 72
    14
 73
    10
 74
     0
 42
0.000000001
 43
0.00000001
 40
0.0
 40
0.0
 40
0.0
 40
0.0
 40
0.0087298367304232
 40
0.0486042530080074
 40
0.2762225271845859
 40
0.4771668739228487
 40
0.656311633332359
 40
0.8280181915980408
 40
1.0
 40
1.0
 40
1.0
 40
1.0
 10
-599.0655486743659
 20
2148.435675912648
 30
0.0
 10
-599.0656802581567
 20
2148.434671878754
 30
0.0
 10
-599.0664128642809
 20
2148.429081818033
 30
0.0
 10
-599.0705991293444
 20
2148.39726696691
 30
0.0
 10
-599.0777183136056
 20
2148.342958751636
 30
0.0
 10
-599.0861379587838
 20
2148.278838569213
 30
0.0
 10
-599.0923129886925
 20
2148.231701609499
 30
0.0
 10
-599.0964426735443
 20
2148.200334962535
 30
0.0
 10
-599.0969714124606
 20
2148.196264723452
 30
0.0
 10
-599.0972359936446
 20
2148.194227974042
 30
0.0
  0
SPLINE
  5
1D2
330
1F
100
AcDbEntity
  8
0
  6
Continuous
 62
     7
370
    15
100
AcDbSpline
210
0.0
220
0.0
230
1.0
 70
    24
 71
     3
 72
     9
 73
     5
 74
     0
 42
0.000000001
 43
0.00000001
 40
0.0
 40
0.0
 40
0.0
 40
0.0
 40
0.5
 40
1.0
 40
1.0
 40
1.0
 40
1.0
 10
-599.0972359936446
 20
2148.194227974042
 30
0.0
 10
-599.5416656097781
 20
2148.009933439195
 30
0.0
 10
-600.4305248420447
 20
2147.641344369501
 30
0.0
 10
-601.3193840743114
 20
2147.272755299806
 30
0.0
 10
-601.7638136904449
 20
2147.088460764959
 30
0.0
  0
SPLINE
  5
1D3
330
1F
100
AcDbEntity
  8
0
  6
Continuous
 62
     7
370
    15
100
AcDbSpline
210
0.0
220
0.0
230
1.0
 70
     8
 71
     3
 72
    14
 73
    10
 74
     0
 42
0.000000001
 43
0.00000001
 40
0.0
 40
0.0
 40
0.0
 40
0.0
 40
0.0087365295981888
 40
0.048609396100464
 40
0.2762166438756432
 40
0.4771714193209786
 40
0.6563128859402434
 40
0.8280199601725015
 40
1.0
 40
1.0
 40
1.0
 40
1.0
 10
-601.9570668499679
 20
2147.236629064306
 30
0.0
 10
-601.9562622259535
 20
2147.23601297859
 30
0.0
 10
-601.9517853582248
 20
2147.232585123826
 30
0.0
 10
-601.9263257148546
 20
2147.213053699307
 30
0.0
 10
-601.8828569097126
 20
2147.17973045397
 30
0.0
 10
-601.8315302064492
 20
2147.140384763477
 30
0.0
 10
-601.7938064399857
 20
2147.111456696782
 30
0.0
 10
-601.7686956671911
 20
2147.092208571597
 30
0.0
 10
-601.7654418774428
 20
2147.089710695132
 30
0.0
 10
-601.7638136904449
 20
2147.088460764959
 30
0.0
  0
SPLINE
  5
1D4
330
1F
100
AcDbEntity
  8
0
  6
Continuous
 62
     7
370
    15
100
AcDbSpline
210
0.0
220
0.0
230
1.0
 70
    24
 71
     3
 72
     9
 73
     5
 74
     0
 42
0.000000001
 43
0.00000001
 40
0.0
 40
0.0
 40
0.0
 40
0.0
 40
0.5
 40
1.0
 40
1.0
 40
1.0
 40
1.0
 10
-601.7638136904449
 20
2147.088460764959
 30
0.0
 10
-601.8264234027278
 20
2146.611426826057
 30
0.0
 10
-601.9516428272933
 20
2145.657358948253
 30
0.0
 10
-602.0768622518589
 20
2144.703291070448
 30
0.0
 10
-602.1394719641418
 20
2144.226257131546
 30
0.0
  0
SPLINE
  5
1D5
330
1F
100
AcDbEntity
  8
0
  6
Continuous
 62
     7
370
    15
100
AcDbSpline
210
0.0
220
0.0
230
1.0
 70
    24
 71
     3
 72
     9
 73
     5
 74
     0
 42
0.000000001
 43
0.00000001
 40
0.0
 40
0.0
 40
0.0
 40
0.0
 40
0.5
 40
1.0
 40
1.0
 40
1.0
 40
1.0
 10
-599.8485674421996
 20
2142.469820707217
 30
0.0
 10
-599.4041378260662
 20
2142.654115242064
 30
0.0
 10
-598.5152785937995
 20
2143.022704311758
 30
0.0
 10
-597.6264193615328
 20
2143.391293381452
 30
0.0
 10
-597.1819897453994
 20
2143.575587916299
 30
0.0
  0
CIRCLE
  5
1D6
330
1F
100
AcDbEntity
  8
0
  6
Continuous
 62
     7
370
    15
100
AcDbCircle
 10
-599.4729020755
 20
2145.3320243406
 30
0.0
 40
15.00000000000001
  0
SPLINE
  5
1D7
330
1F
100
AcDbEntity
  8
0
  6
Continuous
 62
     7
370
    15
100
AcDbSpline
210
0.0
220
0.0
230
1.0
 70
     8
 71
     3
 72
     9
 73
     5
 74
     0
 42
0.000000001
 43
0.00000001
 40
0.0
 40
0.0
 40
0.0
 40
0.0
 40
0.5000000245306564
 40
0.9999999999999999
 40
0.9999999999999999
 40
0.9999999999999999
 40
0.9999999999999999
 10
1067.860477669934
 20
2144.226257131546
 30
0.0
 10
1068.242305014998
 20
2143.933517676465
 30
0.0
 10
1069.005959667661
 20
2143.348038795026
 30
0.0
 10
1069.769614432723
 20
2142.762560060245
 30
0.0
 10
1070.15144179652
 20
2142.469820707217
 30
0.0
  0
SPLINE
  5
1D8
330
1F
100
AcDbEntity
  8
0
  6
Continuous
 62
     7
370
    15
100
AcDbSpline
210
0.0
220
0.0
230
1.0
 70
     8
 71
     3
 72
    14
 73
    10
 74
     0
 42
0.000000001
 43
0.00000001
 40
0.0
 40
0.0
 40
0.0
 40
0.0
 40
0.1719775991311586
 40
0.3436845619143317
 40
0.5228330149411206
 40
0.7237846736681123
 40
0.9513724840251132
 40
0.9912835035385164
 40
1.0
 40
1.0
 40
1.0
 40
1.0
 10
1070.15144179652
 20
2142.469820707217
 30
0.0
 10
1070.151191770904
 20
2142.467783792963
 30
0.0
 10
1070.150692113129
 20
2142.463713169889
 30
0.0
 10
1070.146522301705
 20
2142.432347927758
 30
0.0
 10
1070.140375659379
 20
2142.38520458513
 30
0.0
 10
1070.131712333795
 20
2142.321116664562
 30
0.0
 10
1070.125222057474
 20
2142.266724285396
 30
0.0
 10
1070.120503970936
 20
2142.234979657286
 30
0.0
 10
1070.119849448787
 20
2142.229377039489
 30
0.0
 10
1070.1197321255
 20
2142.22837276861
 30
0.0
  0
SPLINE
  5
1D9
330
1F
100
AcDbEntity
  8
0
  6
Continuous
 62
     7
370
    15
100
AcDbSpline
210
0.0
220
0.0
230
1.0
 70
     8
 71
     3
 72
     9
 73
     5
 74
     0
 42
0.000000001
 43
0.00000001
 40
0.0
 40
0.0
 40
0.0
 40
0.0
 40
0.4999836055237342
 40
1.0
 40
1.0
 40
1.0
 40
1.0
 10
1070.1197321255
 20
2142.22837276861
 30
0.0
 10
1069.705423392215
 20
2142.545420073021
 30
0.0
 10
1068.876778755257
 20
2143.179535473822
 30
0.0
 10
1068.0492884563
 20
2143.815156539016
 30
0.0
 10
1067.635529740551
 20
2144.132977492287
 30
0.0
  0
SPLINE
  5
1DA
330
1F
100
AcDbEntity
  8
0
  6
Continuous
 62
     7
370
    15
100
AcDbSpline
210
0.0
220
0.0
230
1.0
 70
     8
 71
     3
 72
    14
 73
    10
 74
     0
 42
0.000000001
 43
0.00000001
 40
0.0
 40
0.0
 40
0.0
 40
0.0
 40
0.0088743146445734
 40
0.0488505540662958
 40
0.2762387148628485
 40
0.4771510166153396
 40
0.6563208628975297
 40
0.8280304513480345
 40
1.0
 40
1.0
 40
1.0
 40
1.0
 10
1067.635529740551
 20
2144.132977492287
 30
0.0
 10
1067.636483535842
 20
2144.133364895864
 30
0.0
 10
1067.64173390506
 20
2144.135497441317
 30
0.0
 10
1067.671361355481
 20
2144.147829500818
 30
0.0
 10
1067.721939217275
 20
2144.168804389186
 30
0.0
 10
1067.781646511274
 20
2144.193573271069
 30
0.0
 10
1067.825573063261
 20
2144.211778105077
 30
0.0
 10
1067.85480963949
 20
2144.223897725356
 30
0.0
 10
1067.858587373955
 20
2144.225470266324
 30
0.0
 10
1067.860477669934
 20
2144.226257131546
 30
0.0
  0
CIRCLE
  5
1DB
330
1F
100
AcDbEntity
  8
0
  6
Continuous
 62
     7
370
    15
100
AcDbCircle
 10
1070.5270979244
 20
2145.3320243406
 30
0.0
 40
14.83208158365307
  0
SPLINE
  5
1DC
330
1F
100
AcDbEntity
  8
0
  6
Continuous
 62
     7
370
    15
100
AcDbSpline
210
0.0
220
0.0
230
1.0
 70
     8
 71
     3
 72
     9
 73
     5
 74
     0
 42
0.000000001
 43
0.00000001
 40
0.0
 40
0.0
 40
0.0
 40
0.0
 40
0.5000010700768789
 40
0.9999999999999999
 40
0.9999999999999999
 40
0.9999999999999999
 40
0.9999999999999999
 10
1067.635529740551
 20
2144.132977492287
 30
0.0
 10
1067.702962388658
 20
2144.650316491217
 30
0.0
 10
1067.837827396239
 20
2145.684992274711
 30
0.0
 10
1067.974600624476
 20
2146.719417539051
 30
0.0
 10
1068.042987092236
 20
2147.236629064306
 30
0.0
  0
SPLINE
  5
1DD
330
1F
100
AcDbEntity
  8
0
  6
Continuous
 62
     7
370
    15
100
AcDbSpline
210
0.0
220
0.0
230
1.0
 70
     8
 71
     3
 72
     9
 73
     5
 74
     0
 42
0.000000001
 43
0.00000001
 40
0.0
 40
0.0
 40
0.0
 40
0.0
 40
0.5000061349031862
 40
1.0
 40
1.0
 40
1.0
 40
1.0
 10
1073.011272652844
 20
2143.427419616952
 30
0.0
 10
1072.529531003643
 20
2143.227123408012
 30
0.0
 10
1071.566059526849
 20
2142.826535905262
 30
0.0
 10
1070.601837315676
 20
2142.427758849855
 30
0.0
 10
1070.1197321255
 20
2142.22837276861
 30
0.0
  0
SPLINE
  5
1DE
330
1F
100
AcDbEntity
  8
0
  6
Continuous
 62
     7
370
    15
100
AcDbSpline
210
0.0
220
0.0
230
1.0
 70
     8
 71
     3
 72
     9
 73
     5
 74
     0
 42
0.000000001
 43
0.00000001
 40
0.0
 40
0.0
 40
0.0
 40
0.0
 40
0.4999986045185357
 40
1.0
 40
1.0
 40
1.0
 40
1.0
 10
1073.418610795239
 20
2146.531071188971
 30
0.0
 10
1073.351227648639
 20
2146.013730914882
 30
0.0
 10
1073.216460979311
 20
2144.979047478941
 30
0.0
 10
1073.079668888927
 20
2143.944629866622
 30
0.0
 10
1073.011272652844
 20
2143.427419616952
 30
0.0
  0
SPLINE
  5
1DF
330
1F
100
AcDbEntity
  8
0
  6
Continuous
 62
     7
370
    15
100
AcDbSpline
210
0.0
220
0.0
230
1.0
 70
     8
 71
     3
 72
     9
 73
     5
 74
     0
 42
0.000000001
 43
0.00000001
 40
0.0
 40
0.0
 40
0.0
 40
0.0
 40
0.5000138195353059
 40
1.0
 40
1.0
 40
1.0
 40
1.0
 10
1070.93440841029
 20
2148.435675912648
 30
0.0
 10
1071.348764250632
 20
2148.11863821489
 30
0.0
 10
1072.177453027127
 20
2147.484580344144
 30
0.0
 10
1073.004899162482
 20
2146.848901717506
 30
0.0
 10
1073.418610795239
 20
2146.531071188971
 30
0.0
  0
SPLINE
  5
1E0
330
1F
100
AcDbEntity
  8
0
  6
Continuous
 62
     7
370
    15
100
AcDbSpline
210
0.0
220
0.0
230
1.0
 70
     8
 71
     3
 72
     9
 73
     5
 74
     0
 42
0.000000001
 43
0.00000001
 40
0.0
 40
0.0
 40
0.0
 40
0.0
 40
0.4999885549414453
 40
1.0
 40
1.0
 40
1.0
 40
1.0
 10
1068.042987092236
 20
2147.236629064306
 30
0.0
 10
1068.524687547333
 20
2147.436928775677
 30
0.0
 10
1069.488110510393
 20
2147.837537368395
 30
0.0
 10
1070.452301753508
 20
2148.236293355373
 30
0.0
 10
1070.93440841029
 20
2148.435675912648
 30
0.0
  0
SPLINE
  5
1E1
330
1F
100
AcDbEntity
  8
0
  6
Continuous
 62
     7
370
    15
100
AcDbSpline
210
0.0
220
0.0
230
1.0
 70
     8
 71
     3
 72
     9
 73
     5
 74
     0
 42
0.000000001
 43
0.00000001
 40
0.0
 40
0.0
 40
0.0
 40
0.0
 40
0.4999973139150567
 40
1.0
 40
1.0
 40
1.0
 40
1.0
 10
1072.818034394482
 20
2143.575587916299
 30
0.0
 10
1072.880609505655
 20
2144.052623136542
 30
0.0
 10
1073.005760400333
 20
2145.006698702482
 30
0.0
 10
1073.131028486362
 20
2145.960758892177
 30
0.0
 10
1073.193662865856
 20
2146.437791549712
 30
0.0
  0
SPLINE
  5
1E2
330
1F
100
AcDbEntity
  8
0
  6
Continuous
 62
     7
370
    15
100
AcDbSpline
210
0.0
220
0.0
230
1.0
 70
     8
 71
     3
 72
    14
 73
    10
 74
     0
 42
0.000000001
 43
0.00000001
 40
0.0
 40
0.0
 40
0.0
 40
0.0
 40
0.1719700749025785
 40
0.3436801888081823
 40
0.5228505833748923
 40
0.7237634999468257
 40
0.9514645579225286
 40
0.9914409196770747
 40
0.9999999999999999
 40
0.9999999999999999
 40
0.9999999999999999
 40
0.9999999999999999
 10
1073.193662865856
 20
2146.437791549712
 30
0.0
 10
1073.195553092745
 20
2146.438578578378
 30
0.0
 10
1073.199330689134
 20
2146.440151445987
 30
0.0
 10
1073.228568314708
 20
2146.452268583879
 30
0.0
 10
1073.272490542155
 20
2146.470483648255
 30
0.0
 10
1073.332247591596
 20
2146.495220147253
 30
0.0
 10
1073.382803821766
 20
2146.516349189672
 30
0.0
 10
1073.412517044266
 20
2146.528478369596
 30
0.0
 10
1073.417697276711
 20
2146.530682497581
 30
0.0
 10
1073.418610795239
 20
2146.531071188971
 30
0.0
  0
SPLINE
  5
1E3
330
1F
100
AcDbEntity
  8
0
  6
Continuous
 62
     7
370
    15
100
AcDbSpline
210
0.0
220
0.0
230
1.0
 70
     8
 71
     3
 72
    14
 73
    10
 74
     0
 42
0.000000001
 43
0.00000001
 40
0.0
 40
0.0
 40
0.0
 40
0.0
 40
0.1719970507538644
 40
0.3436958146047693
 40
0.5228458491337322
 40
0.7237187323336228
 40
0.9513201010168959
 40
0.9913306636310806
 40
1.0
 40
1.0
 40
1.0
 40
1.0
 10
1072.818034394482
 20
2143.575587916299
 30
0.0
 10
1072.819673253005
 20
2143.574338225135
 30
0.0
 10
1072.822948127852
 20
2143.571841010091
 30
0.0
 10
1072.848029506501
 20
2143.552591660693
 30
0.0
 10
1072.885752797085
 20
2143.523664403596
 30
0.0
 10
1072.937072594575
 20
2143.484351820802
 30
0.0
 10
1072.980419784479
 20
2143.450859285827
 30
0.0
 10
1073.006018943515
 20
2143.431499433365
 30
0.0
 10
1073.01047846312
 20
2143.428036352303
 30
0.0
 10
1073.011272652844
 20
2143.427419616952
 30
0.0
  0
SPLINE
  5
1E4
330
1F
100
AcDbEntity
  8
0
  6
Continuous
 62
     7
370
    15
100
AcDbSpline
210
0.0
220
0.0
230
1.0
 70
     8
 71
     3
 72
     9
 73
     5
 74
     0
 42
0.000000001
 43
0.00000001
 40
0.0
 40
0.0
 40
0.0
 40
0.0
 40
0.5000164066802115
 40
0.9999999999999999
 40
0.9999999999999999
 40
0.9999999999999999
 40
0.9999999999999999
 10
1073.193662865856
 20
2146.437791549712
 30
0.0
 10
1072.81183184127
 20
2146.730526208779
 30
0.0
 10
1072.048194849594
 20
2147.315976316327
 30
0.0
 10
1071.284601896887
 20
2147.901483825627
 30
0.0
 10
1070.902817948559
 20
2148.194227974042
 30
0.0
  0
SPLINE
  5
1E5
330
1F
100
AcDbEntity
  8
0
  6
Continuous
 62
     7
370
    15
100
AcDbSpline
210
0.0
220
0.0
230
1.0
 70
     8
 71
     3
 72
    14
 73
    10
 74
     0
 42
0.000000001
 43
0.00000001
 40
0.0
 40
0.0
 40
0.0
 40
0.0
 40
0.0087168571653777
 40
0.0485840848576865
 40
0.2762252430677211
 40
0.4771453493127696
 40
0.656301215816395
 40
0.8280152841345017
 40
1.0
 40
1.0
 40
1.0
 40
1.0
 10
1070.93440841029
 20
2148.435675912648
 30
0.0
 10
1070.934290208577
 20
2148.434671759372
 30
0.0
 10
1070.933631402088
 20
2148.429075032586
 30
0.0
 10
1070.92935188036
 20
2148.397271918319
 30
0.0
 10
1070.922221169488
 20
2148.342967324134
 30
0.0
 10
1070.913956396389
 20
2148.278831851727
 30
0.0
 10
1070.907719847191
 20
2148.231702891127
 30
0.0
 10
1070.903571960927
 20
2148.200334985475
 30
0.0
 10
1070.903069417925
 20
2148.196264712906
 30
0.0
 10
1070.902817948559
 20
2148.194227974042
 30
0.0
  0
SPLINE
  5
1E6
330
1F
100
AcDbEntity
  8
0
  6
Continuous
 62
     7
370
    15
100
AcDbSpline
210
0.0
220
0.0
230
1.0
 70
     8
 71
     3
 72
     9
 73
     5
 74
     0
 42
0.000000001
 43
0.00000001
 40
0.0
 40
0.0
 40
0.0
 40
0.0
 40
0.5000190682612501
 40
1.0
 40
1.0
 40
1.0
 40
1.0
 10
1070.902817948559
 20
2148.194227974042
 30
0.0
 10
1070.458364521012
 20
2148.009936953639
 30
0.0
 10
1069.569491564443
 20
2147.641368968735
 30
0.0
 10
1068.680636122594
 20
2147.272758813715
 30
0.0
 10
1068.236225350598
 20
2147.088460764959
 30
0.0
  0
SPLINE
  5
1E7
330
1F
100
AcDbEntity
  8
0
  6
Continuous
 62
     7
370
    15
100
AcDbSpline
210
0.0
220
0.0
230
1.0
 70
     8
 71
     3
 72
    14
 73
    10
 74
     0
 42
0.000000001
 43
0.00000001
 40
0.0
 40
0.0
 40
0.0
 40
0.0
 40
0.0086695722509357
 40
0.0484099097192771
 40
0.2760174711568114
 40
0.4771399248715874
 40
0.656294833853398
 40
0.8279982694172088
 40
1.0
 40
1.0
 40
1.0
 40
1.0
 10
1068.042987092236
 20
2147.236629064306
 30
0.0
 10
1068.043781598654
 20
2147.236012743791
 30
0.0
 10
1068.048218032525
 20
2147.232571279822
 30
0.0
 10
1068.073631622181
 20
2147.21302076011
 30
0.0
 10
1068.117105480583
 20
2147.179713825189
 30
0.0
 10
1068.168498760997
 20
2147.140400741341
 30
0.0
 10
1068.206228183177
 20
2147.111456134538
 30
0.0
 10
1068.231312122976
 20
2147.092207889183
 30
0.0
 10
1068.234586660755
 20
2147.089710528837
 30
0.0
 10
1068.236225350598
 20
2147.088460764959
 30
0.0
  0
SPLINE
  5
1E8
330
1F
100
AcDbEntity
  8
0
  6
Continuous
 62
     7
370
    15
100
AcDbSpline
210
0.0
220
0.0
230
1.0
 70
    24
 71
     3
 72
     9
 73
     5
 74
     0
 42
0.000000001
 43
0.00000001
 40
0.0
 40
0.0
 40
0.0
 40
0.0
 40
0.5
 40
1.0
 40
1.0
 40
1.0
 40
1.0
 10
1068.236225350598
 20
2147.088460764959
 30
0.0
 10
1068.173600737153
 20
2146.611426826057
 30
0.0
 10
1068.048351510266
 20
2145.657358948253
 30
0.0
 10
1067.923102283378
 20
2144.703291070448
 30
0.0
 10
1067.860477669934
 20
2144.226257131546
 30
0.0
  0
SPLINE
  5
1E9
330
1F
100
AcDbEntity
  8
0
  6
Continuous
 62
     7
370
    15
100
AcDbSpline
210
0.0
220
0.0
230
1.0
 70
     8
 71
     3
 72
     9
 73
     5
 74
     0
 42
0.000000001
 43
0.00000001
 40
0.0
 40
0.0
 40
0.0
 40
0.0
 40
0.4999809317387499
 40
1.0
 40
1.0
 40
1.0
 40
1.0
 10
1070.15144179652
 20
2142.469820707217
 30
0.0
 10
1070.595852568517
 20
2142.654118755972
 30
0.0
 10
1071.484708010365
 20
2143.022728910992
 30
0.0
 10
1072.373580966935
 20
2143.391296895897
 30
0.0
 10
1072.818034394482
 20
2143.575587916299
 30
0.0
  0
CIRCLE
  5
1EA
330
1F
100
AcDbEntity
  8
0
  6
Continuous
 62
     7
370
    15
100
AcDbCircle
 10
1070.5270979244
 20
2145.3320243406
 30
0.0
 40
15.00000000000001
  0
LINE
  5
1EB
330
1F
100
AcDbEntity
  8
0
  6
Continuous
 62
     7
370
    15
100
AcDbLine
 10
-597.3147143882
 20
2146.1539402032
 30
0.0
 11
-597.6820056598
 21
2143.8739341927
 31
0.0
  0
LINE
  5
1EC
330
1F
100
AcDbEntity
  8
0
  6
Continuous
 62
     7
370
    15
100
AcDbLine
 10
-601.6310964983
 20
2144.510108478
 30
0.0
 11
-599.8402004402
 21
2143.0520183883
 31
0.0
  0
LINE
  5
1ED
330
1F
100
AcDbEntity
  8
0
  6
Continuous
 62
     7
370
    15
100
AcDbLine
 10
-597.6820056598
 20
2143.8739341927
 30
0.0
 11
-599.8402004402
 21
2143.0520183883
 31
0.0
  0
LINE
  5
1EE
330
1F
100
AcDbEntity
  8
0
  6
Continuous
 62
     7
370
    15
100
AcDbLine
 10
-597.3147143882
 20
2146.1539402032
 30
0.0
 11
-599.1056029957
 21
2147.612030293
 31
0.0
  0
LINE
  5
1EF
330
1F
100
AcDbEntity
  8
0
  6
Continuous
 62
     7
370
    15
100
AcDbLine
 10
-601.263797776
 20
2146.7901144886
 30
0.0
 11
-599.1056029957
 21
2147.612030293
 31
0.0
  0
LINE
  5
1F0
330
1F
100
AcDbEntity
  8
0
  6
Continuous
 62
     7
370
    15
100
AcDbLine
 10
-601.263797776
 20
2146.7901144886
 30
0.0
 11
-601.6310964983
 21
2144.510108478
 31
0.0
  0
LINE
  5
1F1
330
1F
100
AcDbEntity
  8
0
  6
Continuous
 62
     7
370
    15
100
AcDbLine
 10
1068.3689052899
 20
2144.510108478
 30
0.0
 11
1070.1597864468
 21
2143.0520183883
 31
0.0
  0
LINE
  5
1F2
330
1F
100
AcDbEntity
  8
0
  6
Continuous
 62
     7
370
    15
100
AcDbLine
 10
1068.736189111
 20
2146.7901144886
 30
0.0
 11
1070.894354089
 21
2147.612030293
 31
0.0
  0
LINE
  5
1F3
330
1F
100
AcDbEntity
  8
0
  6
Continuous
 62
     7
370
    15
100
AcDbLine
 10
1068.736189111
 20
2146.7901144886
 30
0.0
 11
1068.3689052899
 21
2144.510108478
 31
0.0
  0
LINE
  5
1F4
330
1F
100
AcDbEntity
  8
0
  6
Continuous
 62
     7
370
    15
100
AcDbLine
 10
1072.6852352459
 20
2146.1539402032
 30
0.0
 11
1072.3179514248
 21
2143.8739341927
 31
0.0
  0
LINE
  5
1F5
330
1F
100
AcDbEntity
  8
0
  6
Continuous
 62
     7
370
    15
100
AcDbLine
 10
1072.3179514248
 20
2143.8739341927
 30
0.0
 11
1070.1597864468
 21
2143.0520183883
 31
0.0
  0
LINE
  5
1F6
330
1F
100
AcDbEntity
  8
0
  6
Continuous
 62
     7
370
    15
100
AcDbLine
 10
1072.6852352459
 20
2146.1539402032
 30
0.0
 11
1070.894354089
 21
2147.612030293
 31
0.0
  0
CIRCLE
  5
1F7
330
1F
100
AcDbEntity
  8
0
  6
Continuous
 62
     7
370
    15
100
AcDbCircle
 10
-599.4729020755
 20
2145.3320243406
 30
0.0
 40
19.99999999999987
  0
CIRCLE
  5
1F8
330
1F
100
AcDbEntity
  8
0
  6
Continuous
 62
     7
370
    15
100
AcDbCircle
 10
1070.5270979244
 20
2145.3320243406
 30
0.0
 40
19.99999999999999
  0
ARC
  5
1F9
330
1F
100
AcDbEntity
  8
0
  6
Continuous
 62
     7
370
    15
100
AcDbCircle
 10
1006.5269979245
 20
2145.3320243406
 30
0.0
 40
14.99999999999994
100
AcDbArc
 50
56.4426902381
 51
123.5573097619
  0
ARC
  5
1FA
330
1F
100
AcDbEntity
  8
0
  6
Continuous
 62
     7
370
    15
100
AcDbCircle
 10
1006.5269979245
 20
2145.3320243406
 30
0.0
 40
14.99999999999931
100
AcDbArc
 50
236.4426902381
 51
303.5573097619
  0
ARC
  5
1FB
330
1F
100
AcDbEntity
  8
0
  6
Continuous
 62
     7
370
    15
100
AcDbCircle
 10
1006.5269979245
 20
2145.3320243406
 30
0.0
 40
29.99999999999996
100
AcDbArc
 50
204.6243183522
 51
335.3756816478
  0
ARC
  5
1FC
330
1F
100
AcDbEntity
  8
0
  6
Continuous
 62
     7
370
    15
100
AcDbCircle
 10
1006.5269979245
 20
2145.3320243406
 30
0.0
 40
30.00000000000031
100
AcDbArc
 50
24.6243183522
 51
155.3756816478
  0
ARC
  5
1FD
330
1F
100
AcDbEntity
  8
0
  6
Continuous
 62
     7
370
    15
100
AcDbCircle
 10
-20.1396020755
 20
2145.3320243406
 30
0.0
 40
14.99999999999998
100
AcDbArc
 50
56.4426902381
 51
123.5573097619
  0
ARC
  5
1FE
330
1F
100
AcDbEntity
  8
0
  6
Continuous
 62
     7
370
    15
100
AcDbCircle
 10
-20.1396020755
 20
2145.3320243406
 30
0.0
 40
14.99999999999964
100
AcDbArc
 50
236.4426902381
 51
303.5573097619
  0
ARC
  5
1FF
330
1F
100
AcDbEntity
  8
0
  6
Continuous
 62
     7
370
    15
100
AcDbCircle
 10
-20.1396020755
 20
2145.3320243406
 30
0.0
 40
30.0
100
AcDbArc
 50
204.6243183522
 51
335.3756816478
  0
ARC
  5
200
330
1F
100
AcDbEntity
  8
0
  6
Continuous
 62
     7
370
    15
100
AcDbCircle
 10
-20.1396020755
 20
2145.3320243406
 30
0.0
 40
30.00000000000017
100
AcDbArc
 50
24.6243183522
 51
155.3756816478
  0
ARC
  5
201
330
1F
100
AcDbEntity
  8
0
  6
Continuous
 62
     7
370
    15
100
AcDbCircle
 10
-533.4729020755
 20
2145.3320243406
 30
0.0
 40
14.99999999999994
100
AcDbArc
 50
56.4426902381
 51
123.5573097619
  0
ARC
  5
202
330
1F
100
AcDbEntity
  8
0
  6
Continuous
 62
     7
370
    15
100
AcDbCircle
 10
-533.4729020755
 20
2145.3320243406
 30
0.0
 40
14.99999999999962
100
AcDbArc
 50
236.4426902381
 51
303.5573097619
  0
ARC
  5
203
330
1F
100
AcDbEntity
  8
0
  6
Continuous
 62
     7
370
    15
100
AcDbCircle
 10
-533.4729020755
 20
2145.3320243406
 30
0.0
 40
30.0000000000001
100
AcDbArc
 50
238.8910774895
 51
335.3756816478
  0
ARC
  5
204
330
1F
100
AcDbEntity
  8
0
  6
Continuous
 62
     7
370
    15
100
AcDbCircle
 10
-533.4729020755
 20
2145.3320243406
 30
0.0
 40
30.00000000000031
100
AcDbArc
 50
24.6243183522
 51
95.3833504544
  0
ARC
  5
205
330
1F
100
AcDbEntity
  8
0
  6
Continuous
 62
     7
370
    15
100
AcDbCircle
 10
493.1936979245
 20
2145.3320243406
 30
0.0
 40
14.99999999999994
100
AcDbArc
 50
56.4426902381
 51
123.5573097619
  0
ARC
  5
206
330
1F
100
AcDbEntity
  8
0
  6
Continuous
 62
     7
370
    15
100
AcDbCircle
 10
493.1936979245
 20
2145.3320243406
 30
0.0
 40
14.99999999999927
100
AcDbArc
 50
236.4426902381
 51
303.5573097619
  0
ARC
  5
207
330
1F
100
AcDbEntity
  8
0
  6
Continuous
 62
     7
370
    15
100
AcDbCircle
 10
493.1936979245
 20
2145.3320243406
 30
0.0
 40
29.99999999999986
100
AcDbArc
 50
204.6243183522
 51
335.3756816478
  0
ARC
  5
208
330
1F
100
AcDbEntity
  8
0
  6
Continuous
 62
     7
370
    15
100
AcDbCircle
 10
493.1936979245
 20
2145.3320243406
 30
0.0
 40
30.0000000000002
100
AcDbArc
 50
24.6243183522
 51
155.3756816478
  0
LINE
  5
209
330
1F
100
AcDbEntity
  8
0
  6
Continuous
 62
     8
370
    15
100
AcDbLine
 10
250.81157039
 20
60.3319861937
 30
0.0
 11
250.7863576252
 21
54.331944232
 31
0.0
  0
LINE
  5
20A
330
1F
100
AcDbEntity
  8
0
  6
Continuous
 62
     8
370
    15
100
AcDbLine
 10
277.2426540692
 20
60.3319861937
 30
0.0
 11
277.2678668339
 21
54.331944232
 31
0.0
  0
LINE
  5
20B
330
1F
100
AcDbEntity
  8
0
  6
Continuous
 62
     7
370
    15
100
AcDbLine
 10
-540.9229019928
 20
-380.8637859052
 30
0.0
 11
-539.9229022946
 21
-381.8637879317
 31
0.0
  0
LINE
  5
20C
330
1F
100
AcDbEntity
  8
0
  6
Continuous
 62
     7
370
    15
100
AcDbLine
 10
-527.0229018565
 20
-381.8637879317
 30
0.0
 11
-526.0229021583
 21
-380.8637859052
 31
0.0
  0
LINE
  5
20D
330
1F
100
AcDbEntity
  8
0
  6
Continuous
 62
     7
370
    15
100
AcDbLine
 10
999.0769560177
 20
-380.8637859052
 30
0.0
 11
1000.0770027478
 21
-381.8637879317
 31
0.0
  0
LINE
  5
20E
330
1F
100
AcDbEntity
  8
0
  6
Continuous
 62
     7
370
    15
100
AcDbLine
 10
1012.9769975979
 20
-381.8637879317
 30
0.0
 11
1013.977044328
 21
-380.8637859052
 31
0.0
  0
LINE
  5
20F
330
1F
100
AcDbEntity
  8
0
  6
Continuous
 62
     7
370
    15
100
AcDbLine
 10
500.6437237103
 20
-380.8637859052
 30
0.0
 11
500.6437237103
 21
-380.6100973612
 31
0.0
  0
LINE
  5
210
330
1F
100
AcDbEntity
  8
0
  6
Continuous
 62
     7
370
    15
100
AcDbLine
 10
485.7437546093
 20
-380.8637859052
 30
0.0
 11
486.7436821301
 21
-381.8637879317
 31
0.0
  0
LINE
  5
211
330
1F
100
AcDbEntity
  8
0
  6
Continuous
 62
     7
370
    15
100
AcDbLine
 10
499.6436769802
 20
-381.8637879317
 30
0.0
 11
500.6437237103
 21
-380.8637859052
 31
0.0
  0
LINE
  5
212
330
1F
100
AcDbEntity
  8
0
  6
Continuous
 62
     7
370
    15
100
AcDbLine
 10
-27.589625613
 20
-380.6100973612
 30
0.0
 11
-27.589625613
 21
-380.8637859052
 31
0.0
  0
LINE
  5
213
330
1F
100
AcDbEntity
  8
0
  6
Continuous
 62
     7
370
    15
100
AcDbLine
 10
-27.589625613
 20
-380.8637859052
 30
0.0
 11
-26.589578883
 21
-381.8637879317
 31
0.0
  0
LINE
  5
214
330
1F
100
AcDbEntity
  8
0
  6
Continuous
 62
     7
370
    15
100
AcDbLine
 10
-13.6895840328
 20
-381.8637879317
 30
0.0
 11
-12.6895969074
 21
-380.8637859052
 31
0.0
  0
LINE
  5
215
330
1F
100
AcDbEntity
  8
0
  6
Continuous
 62
     7
370
    15
100
AcDbLine
 10
-540.9729019079
 20
-355.8637873953
 30
0.0
 11
-549.0675437536
 21
-355.8637873953
 31
0.0
  0
LINE
  5
216
330
1F
100
AcDbEntity
  8
0
  6
Continuous
 62
     7
370
    15
100
AcDbLine
 10
-578.8782601516
 20
-355.8637873953
 30
0.0
 11
-583.5510221582
 21
-355.8637873953
 31
0.0
  0
LINE
  5
217
330
1F
100
AcDbEntity
  8
0
  6
Continuous
 62
     7
370
    15
100
AcDbLine
 10
-615.394785003
 20
-355.8637873953
 30
0.0
 11
-663.4728973072
 21
-355.8637873953
 31
0.0
  0
LINE
  5
218
330
1F
100
AcDbEntity
  8
0
  6
Continuous
 62
     7
370
    15
100
AcDbLine
 10
-27.6395743053
 20
-355.8637873953
 30
0.0
 11
-525.9907640788
 21
-355.8637873953
 31
0.0
  0
LINE
  5
219
330
1F
100
AcDbEntity
  8
0
  6
Continuous
 62
     7
370
    15
100
AcDbLine
 10
485.6936867077
 20
-355.8637873953
 30
0.0
 11
201.9324834187
 21
-355.8637873953
 31
0.0
  0
LINE
  5
21A
330
1F
100
AcDbEntity
  8
0
  6
Continuous
 62
     7
370
    15
100
AcDbLine
 10
172.1217567761
 20
-355.8637873953
 30
0.0
 11
-12.6574700039
 21
-355.8637873953
 31
0.0
  0
LINE
  5
21B
330
1F
100
AcDbEntity
  8
0
  6
Continuous
 62
     7
370
    15
100
AcDbLine
 10
999.0270073254
 20
-355.8637873953
 30
0.0
 11
500.6757910092
 21
-355.8637873953
 31
0.0
  0
LINE
  5
21C
330
1F
100
AcDbEntity
  8
0
  6
Continuous
 62
     7
370
    15
100
AcDbLine
 10
1136.5270550091
 20
-355.8637873953
 30
0.0
 11
1086.4490206082
 21
-355.8637873953
 31
0.0
  0
LINE
  5
21D
330
1F
100
AcDbEntity
  8
0
  6
Continuous
 62
     7
370
    15
100
AcDbLine
 10
1054.6052391369
 20
-355.8637873953
 30
0.0
 11
1014.0091116268
 21
-355.8637873953
 31
0.0
  0
LINE
  5
21E
330
1F
100
AcDbEntity
  8
0
  6
Continuous
 62
     7
370
    15
100
AcDbLine
 10
1014.0770609219
 20
-380.8637859052
 30
0.0
 11
1054.643982156
 21
-380.8637859052
 31
0.0
  0
LINE
  5
21F
330
1F
100
AcDbEntity
  8
0
  6
Continuous
 62
     7
370
    15
100
AcDbLine
 10
1086.4145691235
 20
-380.8637859052
 30
0.0
 11
1136.5270550091
 21
-380.8637859052
 31
0.0
  0
LINE
  5
220
330
1F
100
AcDbEntity
  8
0
  6
Continuous
 62
     7
370
    15
100
AcDbLine
 10
501.0770494778
 20
-380.8637859052
 30
0.0
 11
999.0090067227
 21
-380.8637859052
 31
0.0
  0
LINE
  5
221
330
1F
100
AcDbEntity
  8
0
  6
Continuous
 62
     7
370
    15
100
AcDbLine
 10
-12.6895969074
 20
-380.8637859052
 30
0.0
 11
172.0271046002
 21
-380.8637859052
 31
0.0
  0
LINE
  5
222
330
1F
100
AcDbEntity
  8
0
  6
Continuous
 62
     7
370
    15
100
AcDbLine
 10
202.0270759899
 20
-380.8637859052
 30
0.0
 11
485.7437546093
 21
-380.8637859052
 31
0.0
  0
LINE
  5
223
330
1F
100
AcDbEntity
  8
0
  6
Continuous
 62
     7
370
    15
100
AcDbLine
 10
-525.9229018625
 20
-380.8637859052
 30
0.0
 11
-27.9909436863
 21
-380.8637859052
 31
0.0
  0
LINE
  5
224
330
1F
100
AcDbEntity
  8
0
  6
Continuous
 62
     7
370
    15
100
AcDbLine
 10
-663.4728973072
 20
-380.8637859052
 30
0.0
 11
-615.356004731
 21
-380.8637859052
 31
0.0
  0
LINE
  5
225
330
1F
100
AcDbEntity
  8
0
  6
Continuous
 62
     7
370
    15
100
AcDbLine
 10
-583.5854848187
 20
-380.8637859052
 30
0.0
 11
-578.9729011517
 21
-380.8637859052
 31
0.0
  0
LINE
  5
226
330
1F
100
AcDbEntity
  8
0
  6
Continuous
 62
     7
370
    15
100
AcDbLine
 10
-548.9729018222
 20
-380.8637859052
 30
0.0
 11
-540.9909434888
 21
-380.8637859052
 31
0.0
  0
ARC
  5
227
330
1F
100
AcDbEntity
  8
0
  6
Continuous
 62
     7
370
    15
100
AcDbCircle
 10
201.8270979244
 20
-356.0337866658
 30
0.0
 40
0.2000000000000274
100
AcDbArc
 50
0.0
 51
80.7694259592
  0
ARC
  5
228
330
1F
100
AcDbEntity
  8
0
  6
Continuous
 62
     7
370
    15
100
AcDbCircle
 10
172.2270979244
 20
-356.0337866658
 30
0.0
 40
0.2000000000000274
100
AcDbArc
 50
99.2305740408
 51
180.0
  0
LINE
  5
229
330
1F
100
AcDbEntity
  8
0
  6
Continuous
 62
     7
370
    15
100
AcDbLine
 10
172.0271046002
 20
-356.0337872928
 30
0.0
 11
172.0271046002
 21
-357.1637870496
 31
0.0
  0
LINE
  5
22A
330
1F
100
AcDbEntity
  8
0
  6
Continuous
 62
     7
370
    15
100
AcDbLine
 10
202.0270759899
 20
-357.1637870496
 30
0.0
 11
202.0270759899
 21
-356.0337872928
 31
0.0
  0
ARC
  5
22B
330
1F
100
AcDbEntity
  8
0
  6
Continuous
 62
     7
370
    15
100
AcDbCircle
 10
172.2270979244
 20
-357.1637875145
 30
0.0
 40
0.2000000000000455
100
AcDbArc
 50
180.0
 51
270.0
  0
ARC
  5
22C
330
1F
100
AcDbEntity
  8
0
  6
Continuous
 62
     7
370
    15
100
AcDbCircle
 10
201.8270979244
 20
-357.1637875145
 30
0.0
 40
0.1999999999999886
100
AcDbArc
 50
270.0
 51
0.0
  0
ARC
  5
22D
330
1F
100
AcDbEntity
  8
0
  6
Continuous
 62
     7
370
    15
100
AcDbCircle
 10
182.6102293162
 20
-474.2824735968
 30
0.0
 40
120.0
100
AcDbArc
 50
80.7694259592
 51
86.6345808759
  0
ARC
  5
22E
330
1F
100
AcDbEntity
  8
0
  6
Continuous
 62
     7
370
    15
100
AcDbCircle
 10
191.4439665327
 20
-474.2824735968
 30
0.0
 40
120.0000000000001
100
AcDbArc
 50
93.3646779168
 51
99.2305740408
  0
ARC
  5
22F
330
1F
100
AcDbEntity
  8
0
  6
Continuous
 62
     7
370
    15
100
AcDbCircle
 10
177.0770979244
 20
-357.5637875145
 30
0.0
 40
0.1999999999999602
100
AcDbArc
 50
0.0
 51
90.0
  0
ARC
  5
230
330
1F
100
AcDbEntity
  8
0
  6
Continuous
 62
     7
370
    15
100
AcDbCircle
 10
196.9770979244
 20
-357.5637875145
 30
0.0
 40
0.1999999999999886
100
AcDbArc
 50
90.0
 51
180.0
  0
LINE
  5
231
330
1F
100
AcDbEntity
  8
0
  6
Continuous
 62
     7
370
    15
100
AcDbLine
 10
177.277081712
 20
-357.5637882328
 30
0.0
 11
177.277081712
 21
-357.8637877231
 31
0.0
  0
LINE
  5
232
330
1F
100
AcDbEntity
  8
0
  6
Continuous
 62
     7
370
    15
100
AcDbLine
 10
196.7770988781
 20
-357.8637877231
 30
0.0
 11
196.7770988781
 21
-357.5637882328
 31
0.0
  0
ARC
  5
233
330
1F
100
AcDbEntity
  8
0
  6
Continuous
 62
     7
370
    15
100
AcDbCircle
 10
-549.1729020756
 20
-356.0337866658
 30
0.0
 40
0.2000000000000455
100
AcDbArc
 50
0.0
 51
80.7694259592
  0
ARC
  5
234
330
1F
100
AcDbEntity
  8
0
  6
Continuous
 62
     7
370
    15
100
AcDbCircle
 10
-578.7729020755
 20
-356.0337866658
 30
0.0
 40
0.2000000000000593
100
AcDbArc
 50
99.2305740409
 51
180.0
  0
LINE
  5
235
330
1F
100
AcDbEntity
  8
0
  6
Continuous
 62
     7
370
    15
100
AcDbLine
 10
-578.9729011517
 20
-356.0337872928
 30
0.0
 11
-578.9729011517
 21
-357.1637870496
 31
0.0
  0
LINE
  5
236
330
1F
100
AcDbEntity
  8
0
  6
Continuous
 62
     7
370
    15
100
AcDbLine
 10
-548.9729018222
 20
-357.1637870496
 30
0.0
 11
-548.9729018222
 21
-356.0337872928
 31
0.0
  0
ARC
  5
237
330
1F
100
AcDbEntity
  8
0
  6
Continuous
 62
     7
370
    15
100
AcDbCircle
 10
-578.7729020755
 20
-357.1637875145
 30
0.0
 40
0.2000000000000455
100
AcDbArc
 50
180.0
 51
270.0
  0
ARC
  5
238
330
1F
100
AcDbEntity
  8
0
  6
Continuous
 62
     7
370
    15
100
AcDbCircle
 10
-549.1729020756
 20
-357.1637875145
 30
0.0
 40
0.2000000000000455
100
AcDbArc
 50
270.0
 51
0.0
  0
ARC
  5
239
330
1F
100
AcDbEntity
  8
0
  6
Continuous
 62
     7
370
    15
100
AcDbCircle
 10
-568.3897706838
 20
-474.2824735968
 30
0.0
 40
120.0
100
AcDbArc
 50
80.7694259592
 51
86.6345808759
  0
ARC
  5
23A
330
1F
100
AcDbEntity
  8
0
  6
Continuous
 62
     7
370
    15
100
AcDbCircle
 10
-559.5560334673
 20
-474.2824735968
 30
0.0
 40
120.0
100
AcDbArc
 50
93.3646779168
 51
99.2305740408
  0
ARC
  5
23B
330
1F
100
AcDbEntity
  8
0
  6
Continuous
 62
     7
370
    15
100
AcDbCircle
 10
-573.9229020755
 20
-357.5637875145
 30
0.0
 40
0.1999999999999886
100
AcDbArc
 50
0.0
 51
90.0
  0
ARC
  5
23C
330
1F
100
AcDbEntity
  8
0
  6
Continuous
 62
     7
370
    15
100
AcDbCircle
 10
-554.0229020756
 20
-357.5637875145
 30
0.0
 40
0.1999999999999886
100
AcDbArc
 50
90.0
 51
180.0
  0
LINE
  5
23D
330
1F
100
AcDbEntity
  8
0
  6
Continuous
 62
     7
370
    15
100
AcDbLine
 10
-573.7229016881
 20
-357.5637882328
 30
0.0
 11
-573.7229016881
 21
-357.8637877231
 31
0.0
  0
LINE
  5
23E
330
1F
100
AcDbEntity
  8
0
  6
Continuous
 62
     7
370
    15
100
AcDbLine
 10
-554.2229012858
 20
-357.8637877231
 30
0.0
 11
-554.2229012858
 21
-357.5637882328
 31
0.0
  0
LINE
  5
23F
330
1F
100
AcDbEntity
  8
0
  6
Continuous
 62
     7
370
    15
100
AcDbLine
 10
-551.4729013007
 20
-392.6954010254
 30
0.0
 11
-551.4729013007
 21
-391.3637885576
 31
0.0
  0
LINE
  5
240
330
1F
100
AcDbEntity
  8
0
  6
Continuous
 62
     7
370
    15
100
AcDbLine
 10
-576.4729035359
 20
-391.3637885576
 30
0.0
 11
-576.4729035359
 21
-392.6954010254
 31
0.0
  0
ARC
  5
241
330
1F
100
AcDbEntity
  8
0
  6
Continuous
 62
     7
370
    15
100
AcDbCircle
 10
-576.2729020755
 20
-392.6954002168
 30
0.0
 40
0.2000000000000481
100
AcDbArc
 50
180.0
 51
260.2307482568
  0
ARC
  5
242
330
1F
100
AcDbEntity
  8
0
  6
Continuous
 62
     7
370
    15
100
AcDbCircle
 10
-551.6729020755
 20
-392.6954002168
 30
0.0
 40
0.2000000000000481
100
AcDbArc
 50
279.7692517432
 51
0.0
  0
ARC
  5
243
330
1F
100
AcDbEntity
  8
0
  6
Continuous
 62
     7
370
    15
100
AcDbCircle
 10
-555.945160525
 20
-274.6326079263
 30
0.0
 40
120.0
100
AcDbArc
 50
260.2307482568
 51
266.16417102
  0
ARC
  5
244
330
1F
100
AcDbEntity
  8
0
  6
Continuous
 62
     7
370
    15
100
AcDbCircle
 10
-572.0006436261
 20
-274.6326079263
 30
0.0
 40
120.0
100
AcDbArc
 50
273.83582898
 51
279.7692517432
  0
LINE
  5
245
330
1F
100
AcDbEntity
  8
0
  6
Continuous
 62
     7
370
    15
100
AcDbLine
 10
199.5270783741
 20
-392.6954010254
 30
0.0
 11
199.5270783741
 21
-391.3637885576
 31
0.0
  0
LINE
  5
246
330
1F
100
AcDbEntity
  8
0
  6
Continuous
 62
     7
370
    15
100
AcDbLine
 10
174.527102216
 20
-391.3637885576
 30
0.0
 11
174.527102216
 21
-392.6954010254
 31
0.0
  0
ARC
  5
247
330
1F
100
AcDbEntity
  8
0
  6
Continuous
 62
     7
370
    15
100
AcDbCircle
 10
174.7270979244
 20
-392.6954002168
 30
0.0
 40
0.2000000000000018
100
AcDbArc
 50
180.0
 51
260.2307482568
  0
ARC
  5
248
330
1F
100
AcDbEntity
  8
0
  6
Continuous
 62
     7
370
    15
100
AcDbCircle
 10
199.3270979244
 20
-392.6954002168
 30
0.0
 40
0.2000000000000578
100
AcDbArc
 50
279.7692517432
 51
0.0
  0
ARC
  5
249
330
1F
100
AcDbEntity
  8
0
  6
Continuous
 62
     7
370
    15
100
AcDbCircle
 10
195.054839475
 20
-274.6326079263
 30
0.0
 40
120.0
100
AcDbArc
 50
260.2307482568
 51
266.16417102
  0
ARC
  5
24A
330
1F
100
AcDbEntity
  8
0
  6
Continuous
 62
     7
370
    15
100
AcDbCircle
 10
178.9993563739
 20
-274.6326079263
 30
0.0
 40
120.0
100
AcDbArc
 50
273.83582898
 51
279.7692517432
  0
LINE
  5
24B
330
1F
100
AcDbEntity
  8
0
  6
Continuous
 62
     7
370
    15
100
AcDbLine
 10
158.0271060307
 20
-357.8637877231
 30
0.0
 11
158.0271060307
 21
-359.3637870377
 31
0.0
  0
LINE
  5
24C
330
1F
100
AcDbEntity
  8
0
  6
Continuous
 62
     7
370
    15
100
AcDbLine
 10
216.0270745594
 20
-359.3637870377
 30
0.0
 11
216.0270745594
 21
-357.8637877231
 31
0.0
  0
LINE
  5
24D
330
1F
100
AcDbEntity
  8
0
  6
Continuous
 62
     7
370
    15
100
AcDbLine
 10
216.0270745594
 20
-378.8637893027
 30
0.0
 11
216.0270745594
 21
-377.3637862628
 31
0.0
  0
LINE
  5
24E
330
1F
100
AcDbEntity
  8
0
  6
Continuous
 62
     7
370
    15
100
AcDbLine
 10
158.0271060307
 20
-377.3637862628
 30
0.0
 11
158.0271060307
 21
-378.8637893027
 31
0.0
  0
LINE
  5
24F
330
1F
100
AcDbEntity
  8
0
  6
Continuous
 62
     7
370
    15
100
AcDbLine
 10
-534.9729020886
 20
-378.8637893027
 30
0.0
 11
-534.9729020886
 21
-377.3637862628
 31
0.0
  0
LINE
  5
250
330
1F
100
AcDbEntity
  8
0
  6
Continuous
 62
     7
370
    15
100
AcDbLine
 10
-592.9729034465
 20
-377.3637862628
 30
0.0
 11
-592.9729034465
 21
-378.8637893027
 31
0.0
  0
LINE
  5
251
330
1F
100
AcDbEntity
  8
0
  6
Continuous
 62
     7
370
    15
100
AcDbLine
 10
-592.9729034465
 20
-357.8637877231
 30
0.0
 11
-592.9729034465
 21
-359.3637870377
 31
0.0
  0
LINE
  5
252
330
1F
100
AcDbEntity
  8
0
  6
Continuous
 62
     7
370
    15
100
AcDbLine
 10
-534.9729020886
 20
-359.3637870377
 30
0.0
 11
-534.9729020886
 21
-357.8637877231
 31
0.0
  0
LINE
  5
253
330
1F
100
AcDbEntity
  8
0
  6
Continuous
 62
     7
370
    15
100
AcDbLine
 10
216.0270745594
 20
-360.3842166936
 30
0.0
 11
216.0270745594
 21
-359.3637870377
 31
0.0
  0
LINE
  5
254
330
1F
100
AcDbEntity
  8
0
  6
Continuous
 62
     7
370
    15
100
AcDbLine
 10
158.0271060307
 20
-359.3637870377
 30
0.0
 11
158.0271060307
 21
-360.3842166936
 31
0.0
  0
ARC
  5
255
330
1F
100
AcDbEntity
  8
0
  6
Continuous
 62
     7
370
    15
100
AcDbCircle
 10
225.6270979244
 20
-368.3898389378
 30
0.0
 40
12.50000000000001
100
AcDbArc
 50
140.1746287392
 51
219.8253712608
  0
ARC
  5
256
330
1F
100
AcDbEntity
  8
0
  6
Continuous
 62
     7
370
    15
100
AcDbCircle
 10
148.4270979244
 20
-368.3898389378
 30
0.0
 40
12.49999999999997
100
AcDbArc
 50
320.1746287392
 51
39.8253712608
  0
LINE
  5
257
330
1F
100
AcDbEntity
  8
0
  6
Continuous
 62
     7
370
    15
100
AcDbLine
 10
216.0270745594
 20
-377.3637862628
 30
0.0
 11
216.0270745594
 21
-376.3954603797
 31
0.0
  0
LINE
  5
258
330
1F
100
AcDbEntity
  8
0
  6
Continuous
 62
     7
370
    15
100
AcDbLine
 10
158.0271060307
 20
-376.3954603797
 30
0.0
 11
158.0271060307
 21
-377.3637862628
 31
0.0
  0
LINE
  5
259
330
1F
100
AcDbEntity
  8
0
  6
Continuous
 62
     7
370
    15
100
AcDbLine
 10
-534.9729020886
 20
-360.3842166936
 30
0.0
 11
-534.9729020886
 21
-359.3637870377
 31
0.0
  0
LINE
  5
25A
330
1F
100
AcDbEntity
  8
0
  6
Continuous
 62
     7
370
    15
100
AcDbLine
 10
-592.9729034465
 20
-359.3637870377
 30
0.0
 11
-592.9729034465
 21
-360.3842166936
 31
0.0
  0
ARC
  5
25B
330
1F
100
AcDbEntity
  8
0
  6
Continuous
 62
     7
370
    15
100
AcDbCircle
 10
-525.3729020755
 20
-368.3898389378
 30
0.0
 40
12.50000000000004
100
AcDbArc
 50
140.1746287392
 51
219.8253712608
  0
ARC
  5
25C
330
1F
100
AcDbEntity
  8
0
  6
Continuous
 62
     7
370
    15
100
AcDbCircle
 10
-602.5729020755
 20
-368.3898389378
 30
0.0
 40
12.50000000000004
100
AcDbArc
 50
320.1746287392
 51
39.8253712608
  0
LINE
  5
25D
330
1F
100
AcDbEntity
  8
0
  6
Continuous
 62
     7
370
    15
100
AcDbLine
 10
-534.9729020886
 20
-377.3637862628
 30
0.0
 11
-534.9729020886
 21
-376.3954603797
 31
0.0
  0
LINE
  5
25E
330
1F
100
AcDbEntity
  8
0
  6
Continuous
 62
     7
370
    15
100
AcDbLine
 10
-592.9729034465
 20
-376.3954603797
 30
0.0
 11
-592.9729034465
 21
-377.3637862628
 31
0.0
  0
LINE
  5
25F
330
1F
100
AcDbEntity
  8
0
  6
Continuous
 62
     7
370
    15
100
AcDbLine
 10
202.0270759899
 20
-385.0637862211
 30
0.0
 11
202.0270759899
 21
-379.6637879437
 31
0.0
  0
LINE
  5
260
330
1F
100
AcDbEntity
  8
0
  6
Continuous
 62
     7
370
    15
100
AcDbLine
 10
172.0271046002
 20
-379.6637879437
 30
0.0
 11
172.0271046002
 21
-385.0637862211
 31
0.0
  0
LINE
  5
261
330
1F
100
AcDbEntity
  8
0
  6
Continuous
 62
     7
370
    15
100
AcDbLine
 10
202.0270759899
 20
-379.6637879437
 30
0.0
 11
201.7270858128
 21
-379.3637865906
 31
0.0
  0
LINE
  5
262
330
1F
100
AcDbEntity
  8
0
  6
Continuous
 62
     7
370
    15
100
AcDbLine
 10
172.3270947773
 20
-379.3637865906
 30
0.0
 11
172.0271046002
 21
-379.6637879437
 31
0.0
  0
LINE
  5
263
330
1F
100
AcDbEntity
  8
0
  6
Continuous
 62
     7
370
    15
100
AcDbLine
 10
172.0271046002
 20
-385.0637862211
 30
0.0
 11
172.3270947773
 21
-385.3637875741
 31
0.0
  0
LINE
  5
264
330
1F
100
AcDbEntity
  8
0
  6
Continuous
 62
     7
370
    15
100
AcDbLine
 10
201.7270858128
 20
-385.3637875741
 30
0.0
 11
202.0270759899
 21
-385.0637862211
 31
0.0
  0
LINE
  5
265
330
1F
100
AcDbEntity
  8
0
  6
Continuous
 62
     7
370
    15
100
AcDbLine
 10
196.7770988781
 20
-379.3637865906
 30
0.0
 11
196.7770988781
 21
-378.8637893027
 31
0.0
  0
LINE
  5
266
330
1F
100
AcDbEntity
  8
0
  6
Continuous
 62
     7
370
    15
100
AcDbLine
 10
177.277081712
 20
-378.8637893027
 30
0.0
 11
177.277081712
 21
-379.3637865906
 31
0.0
  0
LINE
  5
267
330
1F
100
AcDbEntity
  8
0
  6
Continuous
 62
     7
370
    15
100
AcDbLine
 10
-548.9729018222
 20
-385.0637862211
 30
0.0
 11
-548.9729018222
 21
-379.6637879437
 31
0.0
  0
LINE
  5
268
330
1F
100
AcDbEntity
  8
0
  6
Continuous
 62
     7
370
    15
100
AcDbLine
 10
-578.9729011517
 20
-379.6637879437
 30
0.0
 11
-578.9729011517
 21
-385.0637862211
 31
0.0
  0
LINE
  5
269
330
1F
100
AcDbEntity
  8
0
  6
Continuous
 62
     7
370
    15
100
AcDbLine
 10
-548.9729018222
 20
-379.6637879437
 30
0.0
 11
-549.2729013126
 21
-379.3637865906
 31
0.0
  0
LINE
  5
26A
330
1F
100
AcDbEntity
  8
0
  6
Continuous
 62
     7
370
    15
100
AcDbLine
 10
-578.6729035239
 20
-379.3637865906
 30
0.0
 11
-578.9729011517
 21
-379.6637879437
 31
0.0
  0
LINE
  5
26B
330
1F
100
AcDbEntity
  8
0
  6
Continuous
 62
     7
370
    15
100
AcDbLine
 10
-578.9729011517
 20
-385.0637862211
 30
0.0
 11
-578.6729035239
 21
-385.3637875741
 31
0.0
  0
LINE
  5
26C
330
1F
100
AcDbEntity
  8
0
  6
Continuous
 62
     7
370
    15
100
AcDbLine
 10
-549.2729013126
 20
-385.3637875741
 30
0.0
 11
-548.9729018222
 21
-385.0637862211
 31
0.0
  0
LINE
  5
26D
330
1F
100
AcDbEntity
  8
0
  6
Continuous
 62
     7
370
    15
100
AcDbLine
 10
-554.2229012858
 20
-379.3637865906
 30
0.0
 11
-554.2229012858
 21
-378.8637893027
 31
0.0
  0
LINE
  5
26E
330
1F
100
AcDbEntity
  8
0
  6
Continuous
 62
     7
370
    15
100
AcDbLine
 10
-573.7229016881
 20
-378.8637893027
 30
0.0
 11
-573.7229016881
 21
-379.3637865906
 31
0.0
  0
LINE
  5
26F
330
1F
100
AcDbEntity
  8
0
  6
Continuous
 62
     7
370
    15
100
AcDbLine
 10
-584.4729011219
 20
-394.293788982
 30
0.0
 11
-584.4729011219
 21
-392.9637858396
 31
0.0
  0
LINE
  5
270
330
1F
100
AcDbEntity
  8
0
  6
Continuous
 62
     7
370
    15
100
AcDbLine
 10
-614.472902314
 20
-392.9637858396
 30
0.0
 11
-614.472902314
 21
-394.293788982
 31
0.0
  0
ARC
  5
271
330
1F
100
AcDbEntity
  8
0
  6
Continuous
 62
     7
370
    15
100
AcDbCircle
 10
-614.2729020755
 20
-394.2937883632
 30
0.0
 40
0.2000000000000455
100
AcDbArc
 50
180.0
 51
260.7694259592
  0
ARC
  5
272
330
1F
100
AcDbEntity
  8
0
  6
Continuous
 62
     7
370
    15
100
AcDbCircle
 10
-584.6729020755
 20
-394.2937883632
 30
0.0
 40
0.2000000000000455
100
AcDbArc
 50
279.2305740408
 51
0.0
  0
ARC
  5
273
330
1F
100
AcDbEntity
  8
0
  6
Continuous
 62
     7
370
    15
100
AcDbCircle
 10
-595.0560334673
 20
-276.0451014322
 30
0.0
 40
120.0
100
AcDbArc
 50
260.7694259592
 51
266.5831083863
  0
ARC
  5
274
330
1F
100
AcDbEntity
  8
0
  6
Continuous
 62
     7
370
    15
100
AcDbCircle
 10
-603.8897706838
 20
-276.0451014322
 30
0.0
 40
120.0
100
AcDbArc
 50
273.4163951255
 51
279.2305740408
  0
LINE
  5
275
330
1F
100
AcDbEntity
  8
0
  6
Continuous
 62
     7
370
    15
100
AcDbLine
 10
1085.5270559628
 20
-394.293788982
 30
0.0
 11
1085.5270559628
 21
-392.9637858396
 31
0.0
  0
LINE
  5
276
330
1F
100
AcDbEntity
  8
0
  6
Continuous
 62
     7
370
    15
100
AcDbLine
 10
1055.527084573
 20
-392.9637858396
 30
0.0
 11
1055.527084573
 21
-394.293788982
 31
0.0
  0
ARC
  5
277
330
1F
100
AcDbEntity
  8
0
  6
Continuous
 62
     7
370
    15
100
AcDbCircle
 10
1055.7270979244
 20
-394.2937883632
 30
0.0
 40
0.2000000000000593
100
AcDbArc
 50
180.0
 51
260.7694259591
  0
ARC
  5
278
330
1F
100
AcDbEntity
  8
0
  6
Continuous
 62
     7
370
    15
100
AcDbCircle
 10
1085.3270979244
 20
-394.2937883632
 30
0.0
 40
0.2000000000000455
100
AcDbArc
 50
279.2305740408
 51
0.0
  0
ARC
  5
279
330
1F
100
AcDbEntity
  8
0
  6
Continuous
 62
     7
370
    15
100
AcDbCircle
 10
1074.9439665327
 20
-276.0451014322
 30
0.0
 40
120.0000000000001
100
AcDbArc
 50
260.7694259592
 51
266.5831083863
  0
ARC
  5
27A
330
1F
100
AcDbEntity
  8
0
  6
Continuous
 62
     7
370
    15
100
AcDbCircle
 10
1066.1102293162
 20
-276.0451014322
 30
0.0
 40
120.0
100
AcDbArc
 50
273.4163951255
 51
279.2305740408
  0
LINE
  5
27B
330
1F
100
AcDbEntity
  8
0
  6
Continuous
 62
     7
370
    15
100
AcDbLine
 10
-619.4729049962
 20
-384.9637882536
 30
0.0
 11
-619.4729049962
 21
-392.9637858396
 31
0.0
  0
LINE
  5
27C
330
1F
100
AcDbEntity
  8
0
  6
Continuous
 62
     7
370
    15
100
AcDbLine
 10
-579.472902165
 20
-392.9637858396
 30
0.0
 11
-579.472902165
 21
-384.9637882536
 31
0.0
  0
LINE
  5
27D
330
1F
100
AcDbEntity
  8
0
  6
Continuous
 62
     7
370
    15
100
AcDbLine
 10
1050.5270893414
 20
-384.9637882536
 30
0.0
 11
1050.5270893414
 21
-392.9637858396
 31
0.0
  0
LINE
  5
27E
330
1F
100
AcDbEntity
  8
0
  6
Continuous
 62
     7
370
    15
100
AcDbLine
 10
1090.5270511944
 20
-392.9637858396
 30
0.0
 11
1090.5270511944
 21
-384.9637882536
 31
0.0
  0
LINE
  5
27F
330
1F
100
AcDbEntity
  8
0
  6
Continuous
 62
     7
370
    15
100
AcDbLine
 10
-583.4729028206
 20
-354.1637884205
 30
0.0
 11
-585.2729034882
 21
-352.3637877529
 31
0.0
  0
LINE
  5
280
330
1F
100
AcDbEntity
  8
0
  6
Continuous
 62
     7
370
    15
100
AcDbLine
 10
-613.672903673
 20
-352.3637877529
 30
0.0
 11
-615.4729043405
 21
-354.1637884205
 31
0.0
  0
LINE
  5
281
330
1F
100
AcDbEntity
  8
0
  6
Continuous
 62
     7
370
    15
100
AcDbLine
 10
-615.4729043405
 20
-380.8637859052
 30
0.0
 11
-615.4729043405
 21
-384.9637882536
 31
0.0
  0
LINE
  5
282
330
1F
100
AcDbEntity
  8
0
  6
Continuous
 62
     7
370
    15
100
AcDbLine
 10
-615.4729043405
 20
-354.1637884205
 30
0.0
 11
-615.4729043405
 21
-355.7637875652
 31
0.0
  0
LINE
  5
283
330
1F
100
AcDbEntity
  8
0
  6
Continuous
 62
     7
370
    15
100
AcDbLine
 10
-583.4729028206
 20
-355.7637875652
 30
0.0
 11
-583.4729028206
 21
-354.1637884205
 31
0.0
  0
LINE
  5
284
330
1F
100
AcDbEntity
  8
0
  6
Continuous
 62
     7
370
    15
100
AcDbLine
 10
-583.4729028206
 20
-384.9637882536
 30
0.0
 11
-583.4729028206
 21
-380.8637859052
 31
0.0
  0
LINE
  5
285
330
1F
100
AcDbEntity
  8
0
  6
Continuous
 62
     7
370
    15
100
AcDbLine
 10
1086.5271026928
 20
-354.1637884205
 30
0.0
 11
1084.7270424206
 21
-352.3637877529
 31
0.0
  0
LINE
  5
286
330
1F
100
AcDbEntity
  8
0
  6
Continuous
 62
     7
370
    15
100
AcDbLine
 10
1056.3270981152
 20
-352.3637877529
 30
0.0
 11
1054.5271570523
 21
-354.1637884205
 31
0.0
  0
LINE
  5
287
330
1F
100
AcDbEntity
  8
0
  6
Continuous
 62
     7
370
    15
100
AcDbLine
 10
1054.5271570523
 20
-380.8637859052
 30
0.0
 11
1054.5271570523
 21
-384.9637882536
 31
0.0
  0
LINE
  5
288
330
1F
100
AcDbEntity
  8
0
  6
Continuous
 62
     7
370
    15
100
AcDbLine
 10
1054.5271570523
 20
-354.1637884205
 30
0.0
 11
1054.5271570523
 21
-355.7637875652
 31
0.0
  0
LINE
  5
289
330
1F
100
AcDbEntity
  8
0
  6
Continuous
 62
     7
370
    15
100
AcDbLine
 10
1086.5271026928
 20
-355.7637875652
 30
0.0
 11
1086.5271026928
 21
-354.1637884205
 31
0.0
  0
LINE
  5
28A
330
1F
100
AcDbEntity
  8
0
  6
Continuous
 62
     7
370
    15
100
AcDbLine
 10
1086.5271026928
 20
-384.9637882536
 30
0.0
 11
1086.5271026928
 21
-380.8637859052
 31
0.0
  0
LINE
  5
28B
330
1F
100
AcDbEntity
  8
0
  6
Continuous
 62
     7
370
    15
100
AcDbLine
 10
485.6936867077
 20
-337.8637877045
 30
0.0
 11
485.6936867077
 21
-355.8637873953
 31
0.0
  0
LINE
  5
28C
330
1F
100
AcDbEntity
  8
0
  6
Continuous
 62
     7
370
    15
100
AcDbLine
 10
500.6936724026
 20
-355.8637873953
 30
0.0
 11
500.6936724026
 21
-337.8637877045
 31
0.0
  0
LINE
  5
28D
330
1F
100
AcDbEntity
  8
0
  6
Continuous
 62
     7
370
    15
100
AcDbLine
 10
-27.6395743053
 20
-337.8637877045
 30
0.0
 11
-27.6395743053
 21
-355.8637873953
 31
0.0
  0
LINE
  5
28E
330
1F
100
AcDbEntity
  8
0
  6
Continuous
 62
     7
370
    15
100
AcDbLine
 10
-12.6395886104
 20
-355.8637873953
 30
0.0
 11
-12.6395886104
 21
-337.8637877045
 31
0.0
  0
LINE
  5
28F
330
1F
100
AcDbEntity
  8
0
  6
Continuous
 62
     7
370
    15
100
AcDbLine
 10
-540.9729019079
 20
-337.8637877045
 30
0.0
 11
-540.9729019079
 21
-355.8637873953
 31
0.0
  0
LINE
  5
290
330
1F
100
AcDbEntity
  8
0
  6
Continuous
 62
     7
370
    15
100
AcDbLine
 10
-525.9729022432
 20
-355.8637873953
 30
0.0
 11
-525.9729022432
 21
-337.8637877045
 31
0.0
  0
LINE
  5
291
330
1F
100
AcDbEntity
  8
0
  6
Continuous
 62
     7
370
    15
100
AcDbLine
 10
999.0270073254
 20
-337.8637877045
 30
0.0
 11
999.0270073254
 21
-355.8637873953
 31
0.0
  0
LINE
  5
292
330
1F
100
AcDbEntity
  8
0
  6
Continuous
 62
     7
370
    15
100
AcDbLine
 10
1014.0269930203
 20
-355.8637873953
 30
0.0
 11
1014.0269930203
 21
-337.8637877045
 31
0.0
  0
LINE
  5
293
330
1F
100
AcDbEntity
  8
0
  6
Continuous
 62
     7
370
    15
100
AcDbLine
 10
976.5269691784
 20
-333.8637875145
 30
0.0
 11
976.5269691784
 21
-335.8637876095
 31
0.0
  0
LINE
  5
294
330
1F
100
AcDbEntity
  8
0
  6
Continuous
 62
     7
370
    15
100
AcDbLine
 10
1036.5270311672
 20
-335.8637876095
 30
0.0
 11
1036.5270311672
 21
-333.8637875145
 31
0.0
  0
LINE
  5
295
330
1F
100
AcDbEntity
  8
0
  6
Continuous
 62
     7
370
    15
100
AcDbLine
 10
976.5269691784
 20
-335.8637876095
 30
0.0
 11
991.5269548733
 21
-337.8637877045
 31
0.0
  0
LINE
  5
296
330
1F
100
AcDbEntity
  8
0
  6
Continuous
 62
     7
370
    15
100
AcDbLine
 10
1021.5270454724
 20
-337.8637877045
 30
0.0
 11
1036.5270311672
 21
-335.8637876095
 31
0.0
  0
LINE
  5
297
330
1F
100
AcDbEntity
  8
0
  6
Continuous
 62
     7
370
    15
100
AcDbLine
 10
-50.1396124523
 20
-333.8637875145
 30
0.0
 11
-50.1396124523
 21
-335.8637876095
 31
0.0
  0
LINE
  5
298
330
1F
100
AcDbEntity
  8
0
  6
Continuous
 62
     7
370
    15
100
AcDbLine
 10
9.8603899319
 20
-335.8637876095
 30
0.0
 11
9.8603899319
 21
-333.8637875145
 31
0.0
  0
LINE
  5
299
330
1F
100
AcDbEntity
  8
0
  6
Continuous
 62
     7
370
    15
100
AcDbLine
 10
-50.1396124523
 20
-335.8637876095
 30
0.0
 11
-35.1395969551
 21
-337.8637877045
 31
0.0
  0
LINE
  5
29A
330
1F
100
AcDbEntity
  8
0
  6
Continuous
 62
     7
370
    15
100
AcDbLine
 10
-5.139595763
 20
-337.8637877045
 30
0.0
 11
9.8603899319
 21
-335.8637876095
 31
0.0
  0
LINE
  5
29B
330
1F
100
AcDbEntity
  8
0
  6
Continuous
 62
     7
370
    15
100
AcDbLine
 10
-563.472901405
 20
-333.8637875145
 30
0.0
 11
-563.472901405
 21
-335.8637876095
 31
0.0
  0
LINE
  5
29C
330
1F
100
AcDbEntity
  8
0
  6
Continuous
 62
     7
370
    15
100
AcDbLine
 10
-503.4729027461
 20
-335.8637876095
 30
0.0
 11
-503.4729027461
 21
-333.8637875145
 31
0.0
  0
LINE
  5
29D
330
1F
100
AcDbEntity
  8
0
  6
Continuous
 62
     7
370
    15
100
AcDbLine
 10
-563.472901405
 20
-335.8637876095
 30
0.0
 11
-548.4729017403
 21
-337.8637877045
 31
0.0
  0
LINE
  5
29E
330
1F
100
AcDbEntity
  8
0
  6
Continuous
 62
     7
370
    15
100
AcDbLine
 10
-518.4729024108
 20
-337.8637877045
 30
0.0
 11
-503.4729027461
 21
-335.8637876095
 31
0.0
  0
LINE
  5
29F
330
1F
100
AcDbEntity
  8
0
  6
Continuous
 62
     7
370
    15
100
AcDbLine
 10
463.1937081654
 20
-333.8637875145
 30
0.0
 11
463.1937081654
 21
-335.8637876095
 31
0.0
  0
LINE
  5
2A0
330
1F
100
AcDbEntity
  8
0
  6
Continuous
 62
     7
370
    15
100
AcDbLine
 10
523.1937105496
 20
-335.8637876095
 30
0.0
 11
523.1937105496
 21
-333.8637875145
 31
0.0
  0
LINE
  5
2A1
330
1F
100
AcDbEntity
  8
0
  6
Continuous
 62
     7
370
    15
100
AcDbLine
 10
463.1937081654
 20
-335.8637876095
 30
0.0
 11
478.1937534649
 21
-337.8637877045
 31
0.0
  0
LINE
  5
2A2
330
1F
100
AcDbEntity
  8
0
  6
Continuous
 62
     7
370
    15
100
AcDbLine
 10
508.1937248547
 20
-337.8637877045
 30
0.0
 11
523.1937105496
 21
-335.8637876095
 31
0.0
  0
LINE
  5
2A3
330
1F
100
AcDbEntity
  8
0
  6
Continuous
 62
     7
370
    15
100
AcDbLine
 10
-540.9229019928
 20
-380.8637859052
 30
0.0
 11
-526.0229021583
 21
-380.8637859052
 31
0.0
  0
LINE
  5
2A4
330
1F
100
AcDbEntity
  8
0
  6
Continuous
 62
     7
370
    15
100
AcDbLine
 10
-527.0229018565
 20
-381.8637879317
 30
0.0
 11
-539.9229022946
 21
-381.8637879317
 31
0.0
  0
LINE
  5
2A5
330
1F
100
AcDbEntity
  8
0
  6
Continuous
 62
     7
370
    15
100
AcDbLine
 10
999.0769560177
 20
-380.8637859052
 30
0.0
 11
1013.977044328
 21
-380.8637859052
 31
0.0
  0
LINE
  5
2A6
330
1F
100
AcDbEntity
  8
0
  6
Continuous
 62
     7
370
    15
100
AcDbLine
 10
1012.9769975979
 20
-381.8637879317
 30
0.0
 11
1000.0770027478
 21
-381.8637879317
 31
0.0
  0
LINE
  5
2A7
330
1F
100
AcDbEntity
  8
0
  6
Continuous
 62
     7
370
    15
100
AcDbLine
 10
485.7437546093
 20
-380.8637859052
 30
0.0
 11
500.6437237103
 21
-380.8637859052
 31
0.0
  0
LINE
  5
2A8
330
1F
100
AcDbEntity
  8
0
  6
Continuous
 62
     7
370
    15
100
AcDbLine
 10
499.6436769802
 20
-381.8637879317
 30
0.0
 11
486.7436821301
 21
-381.8637879317
 31
0.0
  0
LINE
  5
2A9
330
1F
100
AcDbEntity
  8
0
  6
Continuous
 62
     7
370
    15
100
AcDbLine
 10
-27.589625613
 20
-380.8637859052
 30
0.0
 11
-12.6895969074
 21
-380.8637859052
 31
0.0
  0
LINE
  5
2AA
330
1F
100
AcDbEntity
  8
0
  6
Continuous
 62
     7
370
    15
100
AcDbLine
 10
-13.6895840328
 20
-381.8637879317
 30
0.0
 11
-26.589578883
 21
-381.8637879317
 31
0.0
  0
LINE
  5
2AB
330
1F
100
AcDbEntity
  8
0
  6
Continuous
 62
     7
370
    15
100
AcDbLine
 10
-663.4728973072
 20
-380.8637859052
 30
0.0
 11
-663.4728973072
 21
-355.8637873953
 31
0.0
  0
LWPOLYLINE
  5
2AC
330
1F
100
AcDbEntity
  8
0
  6
Continuous
 62
     7
370
    15
100
AcDbPolyline
 90
       13
 70
   128
 43
0.0
 10
999.0090067227
 20
-380.8446826165
 10
999.2463524182
 20
-380.7030135518
 10
1000.1029903729
 20
-380.2177721387
 10
1001.6061003048
 20
-379.4752062982
 10
1003.870123132
 20
-378.6743135875
 10
1005.9497291882
 20
-378.3428037291
 10
1008.1046755154
 20
-378.4502187496
 10
1009.987228616
 20
-378.9098636931
 10
1011.8113691647
 20
-379.6407805508
 10
1013.3478576977
 20
-380.4372923201
 10
1014.0466625531
 20
-380.8454127734
 10
1014.0770609219
 20
-380.8637859052
 10
1014.0770609219
 20
-380.8637859052
  0
LWPOLYLINE
  5
2AD
330
1F
100
AcDbEntity
  8
0
  6
Continuous
 62
     7
370
    15
100
AcDbPolyline
 90
       13
 70
   128
 43
0.0
 10
-27.9909436863
 20
-380.8446826165
 10
-27.7536575954
 20
-380.7030135518
 10
-26.8970196407
 20
-380.2177721387
 10
-25.3939097088
 20
-379.4752062982
 10
-23.1298868816
 20
-378.6743135875
 10
-21.0502212208
 20
-378.3428037291
 10
-18.8953941028
 20
-378.4502187496
 10
-17.0128410022
 20
-378.9098636931
 10
-15.1886408489
 20
-379.6407805508
 10
-13.6522119205
 20
-380.4372923201
 10
-12.9533474605
 20
-380.8454127734
 10
-12.922889487
 20
-380.8637859052
 10
-12.922889487
 20
-380.8637859052
  0
SPLINE
  5
2AE
330
1F
100
AcDbEntity
  8
0
  6
Continuous
 62
     7
370
    15
100
AcDbSpline
210
0.0
220
0.0
230
1.0
 70
     8
 71
     3
 72
    11
 73
     7
 74
     0
 42
0.000000001
 43
0.00000001
 40
0.0
 40
0.0
 40
0.0
 40
0.0
 40
0.2307236924287236
 40
0.4822370465912988
 40
0.7600031877340504
 40
1.0
 40
1.0
 40
1.0
 40
1.0
 10
-540.9909434888274
 20
-380.8446826165397
 30
0.0
 10
-540.9510140474152
 20
-380.8194673869248
 30
0.0
 10
-540.8675572697606
 20
-380.7667648762697
 30
0.0
 10
-539.9269107608471
 20
-380.2291479612741
 30
0.0
 10
-538.5733250307159
 20
-379.4922212552205
 30
0.0
 10
-537.2697337285595
 20
-379.0628255568529
 30
0.0
 10
-536.6654847088963
 20
-378.863789302655
 30
0.0
  0
SPLINE
  5
2AF
330
1F
100
AcDbEntity
  8
0
  6
Continuous
 62
     7
370
    15
100
AcDbSpline
210
0.0
220
0.0
230
1.0
 70
     8
 71
     3
 72
    14
 73
    10
 74
     0
 42
0.000000001
 43
0.00000001
 40
0.0
 40
0.0
 40
0.0
 40
0.0
 40
0.0700002869423418
 40
0.2282574341143646
 40
0.3783912061459629
 40
0.5515643063310629
 40
0.7538583659753777
 40
0.9503468045896852
 40
1.0
 40
1.0
 40
1.0
 40
1.0
 10
-534.9729020885885
 20
-378.4898856406887
 30
0.0
 10
-534.667823791858
 20
-378.4321360072447
 30
0.0
 10
-533.6730223095008
 20
-378.2438255912915
 30
0.0
 10
-531.8924870512511
 20
-378.3928887896313
 30
0.0
 10
-529.8702355078424
 20
-378.903566759925
 30
0.0
 10
-528.0085824433172
 20
-379.6926113407666
 30
0.0
 10
-526.5337284121863
 20
-380.4931423670961
 30
0.0
 10
-525.9604892302441
 20
-380.8412232288713
 30
0.0
 10
-525.9292114146652
 20
-380.8599984523183
 30
0.0
 10
-525.9229018624634
 20
-380.8637859051902
 30
0.0
  0
LWPOLYLINE
  5
2B0
330
1F
100
AcDbEntity
  8
0
  6
Continuous
 62
     7
370
    15
100
AcDbPolyline
 90
       13
 70
   128
 43
0.0
 10
486.0091144879
 20
-380.8446826165
 10
486.2463409741
 20
-380.7030135518
 10
487.1029789288
 20
-380.2177721387
 10
488.6060888607
 20
-379.4752062982
 10
490.8701116879
 20
-378.6743135875
 10
492.9498369534
 20
-378.3428037291
 10
495.1046640713
 20
-378.4502187496
 10
496.9872171719
 20
-378.9098636931
 10
498.8113577206
 20
-379.6407805508
 10
500.3478462536
 20
-380.4372923201
 10
501.046651109
 20
-380.8454127734
 10
501.0770494778
 20
-380.8637859052
 10
501.0770494778
 20
-380.8637859052
  0
LINE
  5
2B1
330
1F
100
AcDbEntity
  8
0
  6
Continuous
 62
     7
370
    15
100
AcDbLine
 10
1136.5270550091
 20
-380.8637859052
 30
0.0
 11
1136.5270550091
 21
-355.8637873953
 31
0.0
  0
LINE
  5
2B2
330
1F
100
AcDbEntity
  8
0
  6
Continuous
 62
     7
370
    15
100
AcDbLine
 10
286.5270907719
 20
-391.8637858456
 30
0.0
 11
199.5270783741
 21
-391.8637858456
 31
0.0
  0
LINE
  5
2B3
330
1F
100
AcDbEntity
  8
0
  6
Continuous
 62
     7
370
    15
100
AcDbLine
 10
174.527102216
 20
-391.8637858456
 30
0.0
 11
-551.4729013007
 21
-391.8637858456
 31
0.0
  0
LINE
  5
2B4
330
1F
100
AcDbEntity
  8
0
  6
Continuous
 62
     7
370
    15
100
AcDbLine
 10
-576.4729035359
 20
-391.8637858456
 30
0.0
 11
-579.472902165
 21
-391.8637858456
 31
0.0
  0
LINE
  5
2B5
330
1F
100
AcDbEntity
  8
0
  6
Continuous
 62
     7
370
    15
100
AcDbLine
 10
-619.4729049962
 20
-391.8637858456
 30
0.0
 11
-663.4728973072
 21
-391.8637858456
 31
0.0
  0
LINE
  5
2B6
330
1F
100
AcDbEntity
  8
0
  6
Continuous
 62
     7
370
    15
100
AcDbLine
 10
-579.472902165
 20
-385.8637885874
 30
0.0
 11
-578.9729011517
 21
-385.8637885874
 31
0.0
  0
LINE
  5
2B7
330
1F
100
AcDbEntity
  8
0
  6
Continuous
 62
     7
370
    15
100
AcDbLine
 10
-548.9729018222
 20
-385.8637885874
 30
0.0
 11
-532.9729020518
 21
-385.8637885874
 31
0.0
  0
ARC
  5
2B8
330
1F
100
AcDbEntity
  8
0
  6
Continuous
 62
     7
370
    15
100
AcDbCircle
 10
-532.9729020755
 20
-370.3637875145
 30
0.0
 40
15.5
100
AcDbArc
 50
270.0
 51
317.3576900201
  0
LINE
  5
2B9
330
1F
100
AcDbEntity
  8
0
  6
Continuous
 62
     7
370
    15
100
AcDbLine
 10
-540.9729019079
 20
-354.8637872314
 30
0.0
 11
-556.5924224715
 21
-354.8637872314
 31
0.0
  0
LINE
  5
2BA
330
1F
100
AcDbEntity
  8
0
  6
Continuous
 62
     7
370
    15
100
AcDbLine
 10
-571.353382365
 20
-354.8637872314
 30
0.0
 11
-583.4729028206
 21
-354.8637872314
 31
0.0
  0
ARC
  5
2BB
330
1F
100
AcDbEntity
  8
0
  6
Continuous
 62
     7
370
    15
100
AcDbCircle
 10
156.0270979245
 20
-370.3637875145
 30
0.0
 40
15.50000000000006
100
AcDbArc
 50
90.0
 51
110.6935412312
  0
ARC
  5
2BC
330
1F
100
AcDbEntity
  8
0
  6
Continuous
 62
     7
370
    15
100
AcDbCircle
 10
156.0270979245
 20
-370.3637875145
 30
0.0
 40
15.49999999999998
100
AcDbArc
 50
222.6423099799
 51
270.0
  0
LINE
  5
2BD
330
1F
100
AcDbEntity
  8
0
  6
Continuous
 62
     7
370
    15
100
AcDbLine
 10
156.0270721752
 20
-385.8637885874
 30
0.0
 11
172.0271046002
 21
-385.8637885874
 31
0.0
  0
LINE
  5
2BE
330
1F
100
AcDbEntity
  8
0
  6
Continuous
 62
     7
370
    15
100
AcDbLine
 10
202.0270759899
 20
-385.8637885874
 30
0.0
 11
217.0271212895
 21
-385.8637885874
 31
0.0
  0
ARC
  5
2BF
330
1F
100
AcDbEntity
  8
0
  6
Continuous
 62
     7
370
    15
100
AcDbCircle
 10
217.0270979244
 20
-370.3637875145
 30
0.0
 40
15.50000000000001
100
AcDbArc
 50
270.0
 51
317.3576900201
  0
ARC
  5
2C0
330
1F
100
AcDbEntity
  8
0
  6
Continuous
 62
     7
370
    15
100
AcDbCircle
 10
217.0270979244
 20
-370.3637875145
 30
0.0
 40
15.5
100
AcDbArc
 50
69.3064587688
 51
90.0
  0
LINE
  5
2C1
330
1F
100
AcDbEntity
  8
0
  6
Continuous
 62
     7
370
    15
100
AcDbLine
 10
217.0271212895
 20
-354.8637872314
 30
0.0
 11
194.4075758297
 21
-354.8637872314
 31
0.0
  0
LINE
  5
2C2
330
1F
100
AcDbEntity
  8
0
  6
Continuous
 62
     7
370
    15
100
AcDbLine
 10
179.6466047604
 20
-354.8637872314
 30
0.0
 11
156.0270721752
 21
-354.8637872314
 31
0.0
  0
LINE
  5
2C3
330
1F
100
AcDbEntity
  8
0
  6
Continuous
 62
     7
370
    15
100
AcDbLine
 10
286.5270907719
 20
-351.8637867397
 30
0.0
 11
-12.6395886104
 21
-351.8637867397
 31
0.0
  0
LINE
  5
2C4
330
1F
100
AcDbEntity
  8
0
  6
Continuous
 62
     7
370
    15
100
AcDbLine
 10
-27.6395743053
 20
-351.8637867397
 30
0.0
 11
-525.9729022432
 21
-351.8637867397
 31
0.0
  0
LINE
  5
2C5
330
1F
100
AcDbEntity
  8
0
  6
Continuous
 62
     7
370
    15
100
AcDbLine
 10
-540.9729019079
 20
-351.8637867397
 30
0.0
 11
-663.4728973072
 21
-351.8637867397
 31
0.0
  0
LINE
  5
2C6
330
1F
100
AcDbEntity
  8
0
  6
Continuous
 62
     7
370
    15
100
AcDbLine
 10
286.5270907719
 20
-391.8637858456
 30
0.0
 11
286.5270907719
 21
-380.8637859052
 31
0.0
  0
LINE
  5
2C7
330
1F
100
AcDbEntity
  8
0
  6
Continuous
 62
     7
370
    15
100
AcDbLine
 10
286.5270907719
 20
-355.8637873953
 30
0.0
 11
286.5270907719
 21
-351.8637867397
 31
0.0
  0
LINE
  5
2C8
330
1F
100
AcDbEntity
  8
0
  6
Continuous
 62
     7
370
    15
100
AcDbLine
 10
-663.4728973072
 20
-391.8637858456
 30
0.0
 11
-663.4728973072
 21
-380.8637859052
 31
0.0
  0
LINE
  5
2C9
330
1F
100
AcDbEntity
  8
0
  6
Continuous
 62
     7
370
    15
100
AcDbLine
 10
-663.4728973072
 20
-355.8637873953
 30
0.0
 11
-663.4728973072
 21
-351.8637867397
 31
0.0
  0
LINE
  5
2CA
330
1F
100
AcDbEntity
  8
0
  6
Continuous
 62
     7
370
    15
100
AcDbLine
 10
201.4967734654
 20
-357.3637867099
 30
0.0
 11
172.2270781834
 21
-357.3637867099
 31
0.0
  0
LINE
  5
2CB
330
1F
100
AcDbEntity
  8
0
  6
Continuous
 62
     7
370
    15
100
AcDbLine
 10
201.8271024067
 20
-357.3637867099
 30
0.0
 11
201.4967734654
 21
-357.3637867099
 31
0.0
  0
LINE
  5
2CC
330
1F
100
AcDbEntity
  8
0
  6
Continuous
 62
     7
370
    15
100
AcDbLine
 10
184.4012672741
 20
-354.5049411928
 30
0.0
 11
185.0907142002
 21
-354.5049411928
 31
0.0
  0
SPLINE
  5
2CD
330
1F
100
AcDbEntity
  8
0
  6
Continuous
 62
     7
370
    15
100
AcDbSpline
210
0.0
220
0.0
230
1.0
 70
     8
 71
     3
 72
     9
 73
     5
 74
     0
 42
0.000000001
 43
0.00000001
 40
0.0
 40
0.0
 40
0.0
 40
0.0
 40
0.4999897736512713
 40
1.0
 40
1.0
 40
1.0
 40
1.0
 10
185.0907142002374
 20
-354.5049411928136
 30
0.0
 10
185.5610940319139
 20
-354.4934637298998
 30
0.0
 10
186.5018729367333
 20
-354.4705083345722
 30
0.0
 10
187.4426537217407
 20
-354.493463416902
 30
0.0
 10
187.9130537349969
 20
-354.5049411928136
 30
0.0
  0
LINE
  5
2CE
330
1F
100
AcDbEntity
  8
0
  6
Continuous
 62
     7
370
    15
100
AcDbLine
 10
187.913053735
 20
-354.5049411928
 30
0.0
 11
189.8494298298
 21
-354.5049411928
 31
0.0
  0
LINE
  5
2CF
330
1F
100
AcDbEntity
  8
0
  6
Continuous
 62
     7
370
    15
100
AcDbLine
 10
189.8494298298
 20
-354.5049411928
 30
0.0
 11
189.6538073857
 21
-354.5049411928
 31
0.0
  0
LINE
  5
2D0
330
1F
100
AcDbEntity
  8
0
  6
Continuous
 62
     7
370
    15
100
AcDbLine
 10
-549.5032062094
 20
-357.3637867099
 30
0.0
 11
-578.7729014914
 21
-357.3637867099
 31
0.0
  0
LINE
  5
2D1
330
1F
100
AcDbEntity
  8
0
  6
Continuous
 62
     7
370
    15
100
AcDbLine
 10
-549.1729014825
 20
-357.3637867099
 30
0.0
 11
-549.5032062094
 21
-357.3637867099
 31
0.0
  0
LINE
  5
2D2
330
1F
100
AcDbEntity
  8
0
  6
Continuous
 62
     7
370
    15
100
AcDbLine
 10
-566.598742203
 20
-354.5049411928
 30
0.0
 11
-565.9092878263
 21
-354.5049411928
 31
0.0
  0
SPLINE
  5
2D3
330
1F
100
AcDbEntity
  8
0
  6
Continuous
 62
     7
370
    15
100
AcDbSpline
210
0.0
220
0.0
230
1.0
 70
     8
 71
     3
 72
     9
 73
     5
 74
     0
 42
0.000000001
 43
0.00000001
 40
0.0
 40
0.0
 40
0.0
 40
0.0
 40
0.4999998644767683
 40
1.0
 40
1.0
 40
1.0
 40
1.0
 10
-565.9092878263206
 20
-354.5049411928136
 30
0.0
 10
-565.4389003236391
 20
-354.4934635754781
 30
0.0
 10
-564.4981250632824
 20
-354.470508334585
 30
0.0
 10
-563.5573505679068
 20
-354.4934635713301
 30
0.0
 10
-563.0869631927222
 20
-354.5049411928136
 30
0.0
  0
LINE
  5
2D4
330
1F
100
AcDbEntity
  8
0
  6
Continuous
 62
     7
370
    15
100
AcDbLine
 10
-563.0869631927
 20
-354.5049411928
 30
0.0
 11
-561.150575922
 21
-354.5049411928
 31
0.0
  0
LINE
  5
2D5
330
1F
100
AcDbEntity
  8
0
  6
Continuous
 62
     7
370
    15
100
AcDbLine
 10
-561.150575922
 20
-354.5049411928
 30
0.0
 11
-561.3462169926
 21
-354.5049411928
 31
0.0
  0
LINE
  5
2D6
330
1F
100
AcDbEntity
  8
0
  6
Continuous
 62
     7
370
    15
100
AcDbLine
 10
216.0270745594
 20
-357.8637877231
 30
0.0
 11
158.0271060307
 21
-357.8637877231
 31
0.0
  0
LINE
  5
2D7
330
1F
100
AcDbEntity
  8
0
  6
Continuous
 62
     7
370
    15
100
AcDbLine
 10
216.0270745594
 20
-359.3637870377
 30
0.0
 11
158.0271060307
 21
-359.3637870377
 31
0.0
  0
LINE
  5
2D8
330
1F
100
AcDbEntity
  8
0
  6
Continuous
 62
     7
370
    15
100
AcDbLine
 10
161.6119677861
 20
-377.3637862628
 30
0.0
 11
216.0270745594
 21
-377.3637862628
 31
0.0
  0
LINE
  5
2D9
330
1F
100
AcDbEntity
  8
0
  6
Continuous
 62
     7
370
    15
100
AcDbLine
 10
158.0271060307
 20
-377.3637862628
 30
0.0
 11
161.6119677861
 21
-377.3637862628
 31
0.0
  0
LINE
  5
2DA
330
1F
100
AcDbEntity
  8
0
  6
Continuous
 62
     7
370
    15
100
AcDbLine
 10
161.6119677861
 20
-378.8637893027
 30
0.0
 11
216.0270745594
 21
-378.8637893027
 31
0.0
  0
LINE
  5
2DB
330
1F
100
AcDbEntity
  8
0
  6
Continuous
 62
     7
370
    15
100
AcDbLine
 10
158.0271060307
 20
-378.8637893027
 30
0.0
 11
161.6119677861
 21
-378.8637893027
 31
0.0
  0
LINE
  5
2DC
330
1F
100
AcDbEntity
  8
0
  6
Continuous
 62
     7
370
    15
100
AcDbLine
 10
-589.3880118888
 20
-378.8637893027
 30
0.0
 11
-534.9729020886
 21
-378.8637893027
 31
0.0
  0
LINE
  5
2DD
330
1F
100
AcDbEntity
  8
0
  6
Continuous
 62
     7
370
    15
100
AcDbLine
 10
-592.9729034465
 20
-378.8637893027
 30
0.0
 11
-589.3880118888
 21
-378.8637893027
 31
0.0
  0
LINE
  5
2DE
330
1F
100
AcDbEntity
  8
0
  6
Continuous
 62
     7
370
    15
100
AcDbLine
 10
-589.3880118888
 20
-377.3637862628
 30
0.0
 11
-534.9729020886
 21
-377.3637862628
 31
0.0
  0
LINE
  5
2DF
330
1F
100
AcDbEntity
  8
0
  6
Continuous
 62
     7
370
    15
100
AcDbLine
 10
-592.9729034465
 20
-377.3637862628
 30
0.0
 11
-589.3880118888
 21
-377.3637862628
 31
0.0
  0
LINE
  5
2E0
330
1F
100
AcDbEntity
  8
0
  6
Continuous
 62
     7
370
    15
100
AcDbLine
 10
-534.9729020886
 20
-357.8637877231
 30
0.0
 11
-592.9729034465
 21
-357.8637877231
 31
0.0
  0
LINE
  5
2E1
330
1F
100
AcDbEntity
  8
0
  6
Continuous
 62
     7
370
    15
100
AcDbLine
 10
-534.9729020886
 20
-359.3637870377
 30
0.0
 11
-592.9729034465
 21
-359.3637870377
 31
0.0
  0
LINE
  5
2E2
330
1F
100
AcDbEntity
  8
0
  6
Continuous
 62
     7
370
    15
100
AcDbLine
 10
161.060267194
 20
-359.3637870377
 30
0.0
 11
216.0270745594
 21
-359.3637870377
 31
0.0
  0
LINE
  5
2E3
330
1F
100
AcDbEntity
  8
0
  6
Continuous
 62
     7
370
    15
100
AcDbLine
 10
158.0271060307
 20
-359.3637870377
 30
0.0
 11
161.060267194
 21
-359.3637870377
 31
0.0
  0
LINE
  5
2E4
330
1F
100
AcDbEntity
  8
0
  6
Continuous
 62
     7
370
    15
100
AcDbLine
 10
158.0271060307
 20
-360.3842166936
 30
0.0
 11
216.0270745594
 21
-360.3842166936
 31
0.0
  0
LINE
  5
2E5
330
1F
100
AcDbEntity
  8
0
  6
Continuous
 62
     7
370
    15
100
AcDbLine
 10
161.060267194
 20
-376.3954603797
 30
0.0
 11
158.0271060307
 21
-376.3954603797
 31
0.0
  0
LINE
  5
2E6
330
1F
100
AcDbEntity
  8
0
  6
Continuous
 62
     7
370
    15
100
AcDbLine
 10
216.0270745594
 20
-376.3954603797
 30
0.0
 11
161.060267194
 21
-376.3954603797
 31
0.0
  0
LINE
  5
2E7
330
1F
100
AcDbEntity
  8
0
  6
Continuous
 62
     7
370
    15
100
AcDbLine
 10
161.060267194
 20
-377.3637862628
 30
0.0
 11
216.0270745594
 21
-377.3637862628
 31
0.0
  0
LINE
  5
2E8
330
1F
100
AcDbEntity
  8
0
  6
Continuous
 62
     7
370
    15
100
AcDbLine
 10
158.0271060307
 20
-377.3637862628
 30
0.0
 11
161.060267194
 21
-377.3637862628
 31
0.0
  0
LINE
  5
2E9
330
1F
100
AcDbEntity
  8
0
  6
Continuous
 62
     7
370
    15
100
AcDbLine
 10
-589.9397460084
 20
-359.3637870377
 30
0.0
 11
-534.9729020886
 21
-359.3637870377
 31
0.0
  0
LINE
  5
2EA
330
1F
100
AcDbEntity
  8
0
  6
Continuous
 62
     7
370
    15
100
AcDbLine
 10
-592.9729034465
 20
-359.3637870377
 30
0.0
 11
-589.9397460084
 21
-359.3637870377
 31
0.0
  0
LINE
  5
2EB
330
1F
100
AcDbEntity
  8
0
  6
Continuous
 62
     7
370
    15
100
AcDbLine
 10
-592.9729034465
 20
-360.3842166936
 30
0.0
 11
-534.9729020886
 21
-360.3842166936
 31
0.0
  0
LINE
  5
2EC
330
1F
100
AcDbEntity
  8
0
  6
Continuous
 62
     7
370
    15
100
AcDbLine
 10
-589.9397460084
 20
-376.3954603797
 30
0.0
 11
-592.9729034465
 21
-376.3954603797
 31
0.0
  0
LINE
  5
2ED
330
1F
100
AcDbEntity
  8
0
  6
Continuous
 62
     7
370
    15
100
AcDbLine
 10
-534.9729020886
 20
-376.3954603797
 30
0.0
 11
-589.9397460084
 21
-376.3954603797
 31
0.0
  0
LINE
  5
2EE
330
1F
100
AcDbEntity
  8
0
  6
Continuous
 62
     7
370
    15
100
AcDbLine
 10
-589.9397460084
 20
-377.3637862628
 30
0.0
 11
-534.9729020886
 21
-377.3637862628
 31
0.0
  0
LINE
  5
2EF
330
1F
100
AcDbEntity
  8
0
  6
Continuous
 62
     7
370
    15
100
AcDbLine
 10
-592.9729034465
 20
-377.3637862628
 30
0.0
 11
-589.9397460084
 21
-377.3637862628
 31
0.0
  0
LINE
  5
2F0
330
1F
100
AcDbEntity
  8
0
  6
Continuous
 62
     7
370
    15
100
AcDbLine
 10
157.0271189053
 20
-385.3637875741
 30
0.0
 11
172.0271046002
 21
-385.3637875741
 31
0.0
  0
LINE
  5
2F1
330
1F
100
AcDbEntity
  8
0
  6
Continuous
 62
     7
370
    15
100
AcDbLine
 10
202.0270759899
 20
-385.3637875741
 30
0.0
 11
217.0271212895
 21
-385.3637875741
 31
0.0
  0
LWPOLYLINE
  5
2F2
330
1F
100
AcDbEntity
  8
0
  6
Continuous
 62
     7
370
    15
100
AcDbPolyline
 90
        3
 70
   128
 43
0.0
 10
157.0271189053
 20
-355.3637882447
 10
154.6806032498
 20
-355.5484620606
 10
153.1865532238
 20
-355.8637873953
  0
ARC
  5
2F3
330
1F
100
AcDbEntity
  8
0
  6
Continuous
 62
     7
370
    15
100
AcDbCircle
 10
157.0270979244
 20
-370.3637875145
 30
0.0
 40
15.00000000000001
100
AcDbArc
 50
224.4270040008
 51
270.0
  0
LINE
  5
2F4
330
1F
100
AcDbEntity
  8
0
  6
Continuous
 62
     7
370
    15
100
AcDbLine
 10
217.0271212895
 20
-355.3637882447
 30
0.0
 11
202.0270759899
 21
-355.3637882447
 31
0.0
  0
LINE
  5
2F5
330
1F
100
AcDbEntity
  8
0
  6
Continuous
 62
     7
370
    15
100
AcDbLine
 10
172.0271046002
 20
-355.3637882447
 30
0.0
 11
157.0271189053
 21
-355.3637882447
 31
0.0
  0
ARC
  5
2F6
330
1F
100
AcDbEntity
  8
0
  6
Continuous
 62
     7
370
    15
100
AcDbCircle
 10
217.0270979244
 20
-370.3637875145
 30
0.0
 40
15.0
100
AcDbArc
 50
270.0
 51
315.5729959992
  0
LWPOLYLINE
  5
2F7
330
1F
100
AcDbEntity
  8
0
  6
Continuous
 62
     7
370
    15
100
AcDbPolyline
 90
        3
 70
   128
 43
0.0
 10
220.8676869709
 20
-355.8637873953
 10
219.373636945
 20
-355.5484620606
 10
217.0271212895
 20
-355.3637882447
  0
LINE
  5
2F8
330
1F
100
AcDbEntity
  8
0
  6
Continuous
 62
     7
370
    15
100
AcDbLine
 10
-579.472902165
 20
-385.3637875741
 30
0.0
 11
-578.9729011517
 21
-385.3637875741
 31
0.0
  0
LINE
  5
2F9
330
1F
100
AcDbEntity
  8
0
  6
Continuous
 62
     7
370
    15
100
AcDbLine
 10
-548.9729018222
 20
-385.3637875741
 30
0.0
 11
-533.9729020993
 21
-385.3637875741
 31
0.0
  0
ARC
  5
2FA
330
1F
100
AcDbEntity
  8
0
  6
Continuous
 62
     7
370
    15
100
AcDbCircle
 10
-533.9729020755
 20
-370.3637875145
 30
0.0
 40
15.0
100
AcDbArc
 50
270.0
 51
315.5729959992
  0
LINE
  5
2FB
330
1F
100
AcDbEntity
  8
0
  6
Continuous
 62
     7
370
    15
100
AcDbLine
 10
-540.9729019079
 20
-355.3637882447
 30
0.0
 11
-548.9729018222
 21
-355.3637882447
 31
0.0
  0
LINE
  5
2FC
330
1F
100
AcDbEntity
  8
0
  6
Continuous
 62
     7
370
    15
100
AcDbLine
 10
-578.9729011517
 20
-355.3637882447
 30
0.0
 11
-583.4729028206
 21
-355.3637882447
 31
0.0
  0
LINE
  5
2FD
330
1F
100
AcDbEntity
  8
0
  6
Continuous
 62
     7
370
    15
100
AcDbLine
 10
202.0270759899
 20
-379.6637879437
 30
0.0
 11
172.0271046002
 21
-379.6637879437
 31
0.0
  0
LINE
  5
2FE
330
1F
100
AcDbEntity
  8
0
  6
Continuous
 62
     7
370
    15
100
AcDbLine
 10
172.0271046002
 20
-385.0637862211
 30
0.0
 11
202.0270759899
 21
-385.0637862211
 31
0.0
  0
LINE
  5
2FF
330
1F
100
AcDbEntity
  8
0
  6
Continuous
 62
     7
370
    15
100
AcDbLine
 10
172.3270947773
 20
-379.3637865906
 30
0.0
 11
201.7270858128
 21
-379.3637865906
 31
0.0
  0
LINE
  5
300
330
1F
100
AcDbEntity
  8
0
  6
Continuous
 62
     7
370
    15
100
AcDbLine
 10
-548.9729018222
 20
-379.6637879437
 30
0.0
 11
-578.9729011517
 21
-379.6637879437
 31
0.0
  0
LINE
  5
301
330
1F
100
AcDbEntity
  8
0
  6
Continuous
 62
     7
370
    15
100
AcDbLine
 10
-578.9729011517
 20
-385.0637862211
 30
0.0
 11
-548.9729018222
 21
-385.0637862211
 31
0.0
  0
LINE
  5
302
330
1F
100
AcDbEntity
  8
0
  6
Continuous
 62
     7
370
    15
100
AcDbLine
 10
-578.6729035239
 20
-379.3637865906
 30
0.0
 11
-549.2729013126
 21
-379.3637865906
 31
0.0
  0
LINE
  5
303
330
1F
100
AcDbEntity
  8
0
  6
Continuous
 62
     7
370
    15
100
AcDbLine
 10
198.6833746273
 20
-355.3637882447
 30
0.0
 11
202.0270759899
 21
-355.3637882447
 31
0.0
  0
LINE
  5
304
330
1F
100
AcDbEntity
  8
0
  6
Continuous
 62
     7
370
    15
100
AcDbLine
 10
202.0270759899
 20
-355.3637882447
 30
0.0
 11
202.0270759899
 21
-355.8637873953
 31
0.0
  0
LINE
  5
305
330
1F
100
AcDbEntity
  8
0
  6
Continuous
 62
     7
370
    15
100
AcDbLine
 10
202.0270759899
 20
-380.8637859052
 30
0.0
 11
202.0270759899
 21
-385.3637875741
 31
0.0
  0
LINE
  5
306
330
1F
100
AcDbEntity
  8
0
  6
Continuous
 62
     7
370
    15
100
AcDbLine
 10
172.0271046002
 20
-385.3637875741
 30
0.0
 11
172.0271046002
 21
-380.8637859052
 31
0.0
  0
LINE
  5
307
330
1F
100
AcDbEntity
  8
0
  6
Continuous
 62
     7
370
    15
100
AcDbLine
 10
172.0271046002
 20
-355.8637873953
 30
0.0
 11
172.0271046002
 21
-355.3637882447
 31
0.0
  0
LINE
  5
308
330
1F
100
AcDbEntity
  8
0
  6
Continuous
 62
     7
370
    15
100
AcDbLine
 10
172.0271046002
 20
-355.3637882447
 30
0.0
 11
175.3708059628
 21
-355.3637882447
 31
0.0
  0
LINE
  5
309
330
1F
100
AcDbEntity
  8
0
  6
Continuous
 62
     7
370
    15
100
AcDbLine
 10
-552.3166218113
 20
-355.3637882447
 30
0.0
 11
-548.9729018222
 21
-355.3637882447
 31
0.0
  0
LINE
  5
30A
330
1F
100
AcDbEntity
  8
0
  6
Continuous
 62
     7
370
    15
100
AcDbLine
 10
-578.9729011517
 20
-385.3637875741
 30
0.0
 11
-578.9729011517
 21
-385.0637862211
 31
0.0
  0
LINE
  5
30B
330
1F
100
AcDbEntity
  8
0
  6
Continuous
 62
     7
370
    15
100
AcDbLine
 10
-578.9729011517
 20
-355.8637873953
 30
0.0
 11
-578.9729011517
 21
-355.3637882447
 31
0.0
  0
LINE
  5
30C
330
1F
100
AcDbEntity
  8
0
  6
Continuous
 62
     7
370
    15
100
AcDbLine
 10
-578.9729011517
 20
-355.3637882447
 30
0.0
 11
-575.6291811626
 21
-355.3637882447
 31
0.0
  0
LINE
  5
30D
330
1F
100
AcDbEntity
  8
0
  6
Continuous
 62
     7
370
    15
100
AcDbLine
 10
-548.9729018222
 20
-355.3637882447
 30
0.0
 11
-548.9729018222
 21
-355.8637873953
 31
0.0
  0
LINE
  5
30E
330
1F
100
AcDbEntity
  8
0
  6
Continuous
 62
     7
370
    15
100
AcDbLine
 10
-548.9729018222
 20
-385.0637862211
 30
0.0
 11
-548.9729018222
 21
-385.3637875741
 31
0.0
  0
LINE
  5
30F
330
1F
100
AcDbEntity
  8
0
  6
Continuous
 62
     7
370
    15
100
AcDbLine
 10
172.0271046002
 20
-385.3637875741
 30
0.0
 11
172.0271046002
 21
-391.3637885576
 31
0.0
  0
LINE
  5
310
330
1F
100
AcDbEntity
  8
0
  6
Continuous
 62
     7
370
    15
100
AcDbLine
 10
172.0271046002
 20
-385.3637875741
 30
0.0
 11
202.0270759899
 21
-385.3637875741
 31
0.0
  0
LINE
  5
311
330
1F
100
AcDbEntity
  8
0
  6
Continuous
 62
     7
370
    15
100
AcDbLine
 10
202.0270759899
 20
-385.3637875741
 30
0.0
 11
202.0270759899
 21
-391.3637885576
 31
0.0
  0
LINE
  5
312
330
1F
100
AcDbEntity
  8
0
  6
Continuous
 62
     7
370
    15
100
AcDbLine
 10
172.0271046002
 20
-391.3637885576
 30
0.0
 11
202.0270759899
 21
-391.3637885576
 31
0.0
  0
LINE
  5
313
330
1F
100
AcDbEntity
  8
0
  6
Continuous
 62
     7
370
    15
100
AcDbLine
 10
-578.9729011517
 20
-385.3637875741
 30
0.0
 11
-578.9729011517
 21
-391.3637885576
 31
0.0
  0
LINE
  5
314
330
1F
100
AcDbEntity
  8
0
  6
Continuous
 62
     7
370
    15
100
AcDbLine
 10
-548.9729018222
 20
-385.3637875741
 30
0.0
 11
-548.9729018222
 21
-391.3637885576
 31
0.0
  0
LINE
  5
315
330
1F
100
AcDbEntity
  8
0
  6
Continuous
 62
     7
370
    15
100
AcDbLine
 10
-578.9729011517
 20
-391.3637885576
 30
0.0
 11
-548.9729018222
 21
-391.3637885576
 31
0.0
  0
LINE
  5
316
330
1F
100
AcDbEntity
  8
0
  6
Continuous
 62
     7
370
    15
100
AcDbLine
 10
-578.9729011517
 20
-385.3637875741
 30
0.0
 11
-548.9729018222
 21
-385.3637875741
 31
0.0
  0
LINE
  5
317
330
1F
100
AcDbEntity
  8
0
  6
Continuous
 62
     7
370
    15
100
AcDbLine
 10
301.5270764668
 20
-385.8637885874
 30
0.0
 11
301.5270764668
 21
-380.8637859052
 31
0.0
  0
LINE
  5
318
330
1F
100
AcDbEntity
  8
0
  6
Continuous
 62
     7
370
    15
100
AcDbLine
 10
286.5270907719
 20
-385.8637885874
 30
0.0
 11
301.5270764668
 21
-385.8637885874
 31
0.0
  0
SPLINE
  5
319
330
1F
100
AcDbEntity
  8
0
  6
Continuous
 62
     7
370
    15
100
AcDbSpline
210
0.0
220
0.0
230
1.0
 70
     8
 71
     3
 72
     9
 73
     5
 74
     0
 42
0.000000001
 43
0.00000001
 40
0.0
 40
0.0
 40
0.0
 40
0.0
 40
0.1853562745398416
 40
1.0
 40
1.0
 40
1.0
 40
1.0
 10
-602.2078459422797
 20
-395.8273345356662
 30
0.0
 10
-602.1924839630077
 20
-395.8296395395461
 30
0.0
 10
-602.1096058445834
 20
-395.8420750715269
 30
0.0
 10
-602.0255458208579
 20
-395.8230407821441
 30
0.0
 10
-601.9570668499679
 20
-395.8075346177299
 30
0.0
  0
LINE
  5
31A
330
1F
100
AcDbEntity
  8
0
  6
Continuous
 62
     7
370
    15
100
AcDbLine
 10
-596.5813835423
 20
-395.8075346177
 30
0.0
 11
-596.7379202407
 21
-395.8273308104
 31
0.0
  0
SPLINE
  5
31B
330
1F
100
AcDbEntity
  8
0
  6
Continuous
 62
     7
370
    15
100
AcDbSpline
210
0.0
220
0.0
230
1.0
 70
     8
 71
     3
 72
     9
 73
     5
 74
     0
 42
0.000000001
 43
0.00000001
 40
0.0
 40
0.0
 40
0.0
 40
0.0
 40
0.499999654431701
 40
0.9999999999999999
 40
0.9999999999999999
 40
0.9999999999999999
 40
0.9999999999999999
 10
-599.0655486743659
 20
-395.8075346177299
 30
0.0
 10
-598.6512211235529
 20
-395.8203514730964
 30
0.0
 10
-597.8225654492124
 20
-395.8459852015455
 30
0.0
 10
-596.9951110352456
 20
-395.8203514849072
 30
0.0
 10
-596.5813835423202
 20
-395.8075346177299
 30
0.0
  0
SPLINE
  5
31C
330
1F
100
AcDbEntity
  8
0
  6
Continuous
 62
     7
370
    15
100
AcDbSpline
210
0.0
220
0.0
230
1.0
 70
     8
 71
     3
 72
     9
 73
     5
 74
     0
 42
0.000000001
 43
0.00000001
 40
0.0
 40
0.0
 40
0.0
 40
0.0
 40
0.5000006406973072
 40
1.0
 40
1.0
 40
1.0
 40
1.0
 10
-601.9570668499679
 20
-395.8075346177299
 30
0.0
 10
-601.4753355901204
 20
-395.8203514899508
 30
0.0
 10
-600.5118743049998
 20
-395.8459852015455
 30
0.0
 10
-599.5476568060627
 20
-395.8203514680528
 30
0.0
 10
-599.0655486743659
 20
-395.8075346177299
 30
0.0
  0
SPLINE
  5
31D
330
1F
100
AcDbEntity
  8
0
  6
Continuous
 62
     7
370
    15
100
AcDbSpline
210
0.0
220
0.0
230
1.0
 70
     8
 71
     3
 72
     9
 73
     5
 74
     0
 42
0.000000001
 43
0.00000001
 40
0.0
 40
0.0
 40
0.0
 40
0.0
 40
0.1853563077768134
 40
1.0
 40
1.0
 40
1.0
 40
1.0
 10
1067.792170747021
 20
-395.8273345356662
 30
0.0
 10
1067.807535230188
 20
-395.8296395396504
 30
0.0
 10
1067.890426842301
 20
-395.842075069964
 30
0.0
 10
1067.974498580786
 20
-395.8230407810939
 30
0.0
 10
1068.042987092236
 20
-395.8075346177299
 30
0.0
  0
LINE
  5
31E
330
1F
100
AcDbEntity
  8
0
  6
Continuous
 62
     7
370
    15
100
AcDbLine
 10
1073.4186107952
 20
-395.8075346177
 30
0.0
 11
1073.2620889981
 21
-395.8273308104
 31
0.0
  0
SPLINE
  5
31F
330
1F
100
AcDbEntity
  8
0
  6
Continuous
 62
     7
370
    15
100
AcDbSpline
210
0.0
220
0.0
230
1.0
 70
     8
 71
     3
 72
     9
 73
     5
 74
     0
 42
0.000000001
 43
0.00000001
 40
0.0
 40
0.0
 40
0.0
 40
0.0
 40
0.5000138195353059
 40
1.0
 40
1.0
 40
1.0
 40
1.0
 10
1070.93440841029
 20
-395.8075346177299
 30
0.0
 10
1071.348764250632
 20
-395.8203517151724
 30
0.0
 10
1072.177453027127
 20
-395.8459852015716
 30
0.0
 10
1073.004899162482
 20
-395.8203512428442
 30
0.0
 10
1073.418610795239
 20
-395.8075346177299
 30
0.0
  0
SPLINE
  5
320
330
1F
100
AcDbEntity
  8
0
  6
Continuous
 62
     7
370
    15
100
AcDbSpline
210
0.0
220
0.0
230
1.0
 70
     8
 71
     3
 72
     9
 73
     5
 74
     0
 42
0.000000001
 43
0.00000001
 40
0.0
 40
0.0
 40
0.0
 40
0.0
 40
0.4999885549414453
 40
1.0
 40
1.0
 40
1.0
 40
1.0
 10
1068.042987092236
 20
-395.8075346177299
 30
0.0
 10
1068.524687547333
 20
-395.82035128342
 30
0.0
 10
1069.488110510393
 20
-395.8459852015635
 30
0.0
 10
1070.452301753508
 20
-395.8203516745926
 30
0.0
 10
1070.93440841029
 20
-395.8075346177299
 30
0.0
  0
LINE
  5
321
330
1F
100
AcDbEntity
  8
0
  6
Continuous
 62
     7
370
    15
100
AcDbLine
 10
-579.472902165
 20
-384.9637882536
 30
0.0
 11
-619.4729049962
 21
-384.9637882536
 31
0.0
  0
LINE
  5
322
330
1F
100
AcDbEntity
  8
0
  6
Continuous
 62
     7
370
    15
100
AcDbLine
 10
-579.472902165
 20
-392.9637858396
 30
0.0
 11
-619.4729049962
 21
-392.9637858396
 31
0.0
  0
LINE
  5
323
330
1F
100
AcDbEntity
  8
0
  6
Continuous
 62
     7
370
    15
100
AcDbLine
 10
1090.5270511944
 20
-392.9637858396
 30
0.0
 11
1050.5270893414
 21
-392.9637858396
 31
0.0
  0
LINE
  5
324
330
1F
100
AcDbEntity
  8
0
  6
Continuous
 62
     7
370
    15
100
AcDbLine
 10
1090.5270511944
 20
-384.9637882536
 30
0.0
 11
1050.5270893414
 21
-384.9637882536
 31
0.0
  0
LINE
  5
325
330
1F
100
AcDbEntity
  8
0
  6
Continuous
 62
     7
370
    15
100
AcDbLine
 10
-583.4729028206
 20
-354.1637884205
 30
0.0
 11
-615.4729043405
 21
-354.1637884205
 31
0.0
  0
LINE
  5
326
330
1F
100
AcDbEntity
  8
0
  6
Continuous
 62
     7
370
    15
100
AcDbLine
 10
-613.672903673
 20
-352.3637877529
 30
0.0
 11
-585.2729034882
 21
-352.3637877529
 31
0.0
  0
SPLINE
  5
327
330
1F
100
AcDbEntity
  8
0
  6
Continuous
 62
     7
370
    15
100
AcDbSpline
210
0.0
220
0.0
230
1.0
 70
     8
 71
     3
 72
    10
 73
     6
 74
     0
 42
0.000000001
 43
0.00000001
 40
0.0
 40
0.0
 40
0.0
 40
0.0
 40
0.2388890012728406
 40
0.6901639007513944
 40
1.0
 40
1.0
 40
1.0
 40
1.0
 10
-583.5738060336322
 20
-380.8354066436966
 30
0.0
 10
-583.5547928069942
 20
-380.8591949515488
 30
0.0
 10
-583.4998625147143
 20
-380.9279207248248
 30
0.0
 10
-584.0782871020605
 20
-380.2049795546041
 30
0.0
 10
-584.7742245602772
 20
-379.2518095482858
 30
0.0
 10
-585.0575295548648
 20
-378.863789302655
 30
0.0
  0
SPLINE
  5
328
330
1F
100
AcDbEntity
  8
0
  6
Continuous
 62
     7
370
    15
100
AcDbSpline
210
0.0
220
0.0
230
1.0
 70
     8
 71
     3
 72
    10
 73
     6
 74
     0
 42
0.000000001
 43
0.00000001
 40
0.0
 40
0.0
 40
0.0
 40
0.0
 40
0.331056176079998
 40
0.7957734836748974
 40
1.0
 40
1.0
 40
1.0
 40
1.0
 10
-585.0675841133803
 20
-357.8637877231319
 30
0.0
 10
-584.7722651396268
 20
-357.4653350194739
 30
0.0
 10
-584.0623946538326
 20
-356.5075577025723
 30
0.0
 10
-583.5389429426879
 20
-355.8484133377888
 30
0.0
 10
-583.488348998116
 20
-355.7835807555054
 30
0.0
 10
-583.472902820608
 20
-355.7637875651796
 30
0.0
  0
SPLINE
  5
329
330
1F
100
AcDbEntity
  8
0
  6
Continuous
 62
     7
370
    15
100
AcDbSpline
210
0.0
220
0.0
230
1.0
 70
     8
 71
     3
 72
    22
 73
    18
 74
     0
 42
0.000000001
 43
0.00000001
 40
0.0
 40
0.0
 40
0.0
 40
0.0
 40
0.087077751055807
 40
0.1738038526535121
 40
0.2313481668687244
 40
0.2905520995397038
 40
0.3488893247575876
 40
0.408977811036164
 40
0.4779436696593346
 40
0.547313749125721
 40
0.6291799275051507
 40
0.6881376607312352
 40
0.7487576321789184
 40
0.8086819286370659
 40
0.8706631103967133
 40
0.9564114178102737
 40
1.0
 40
1.0
 40
1.0
 40
1.0
 10
-615.4729043405265
 20
-355.7637875651796
 30
0.0
 10
-615.3902789695227
 20
-355.8679254377278
 30
0.0
 10
-615.2253618967545
 20
-356.0757806388162
 30
0.0
 10
-614.1786871800861
 20
-357.43715905512
 30
0.0
 10
-613.0520977039653
 20
-359.0080179699988
 30
0.0
 10
-611.9810407693005
 20
-360.6282906810775
 30
0.0
 10
-610.9005718716271
 20
-362.5067342413303
 30
0.0
 10
-609.8956584624964
 20
-364.7408023419546
 30
0.0
 10
-609.2324188170708
 20
-367.4211117850226
 30
0.0
 10
-609.4146369986835
 20
-370.5492695211837
 30
0.0
 10
-610.4016395279625
 20
-373.2368447166444
 30
0.0
 10
-611.5922059138026
 20
-375.4623076574861
 30
0.0
 10
-612.6989659369324
 20
-377.205270522508
 30
0.0
 10
-613.763743424788
 20
-378.7209064146356
 30
0.0
 10
-614.7581469563426
 20
-380.0524522984098
 30
0.0
 10
-615.4467394602278
 20
-380.9307395846098
 30
0.0
 10
-615.3908400985629
 20
-380.8594368093355
 30
0.0
 10
-615.3720011275024
 20
-380.8354066436966
 30
0.0
  0
LINE
  5
32A
330
1F
100
AcDbEntity
  8
0
  6
Continuous
 62
     7
370
    15
100
AcDbLine
 10
1086.5271026928
 20
-354.1637884205
 30
0.0
 11
1054.5271570523
 21
-354.1637884205
 31
0.0
  0
LINE
  5
32B
330
1F
100
AcDbEntity
  8
0
  6
Continuous
 62
     7
370
    15
100
AcDbLine
 10
1056.3270981152
 20
-352.3637877529
 30
0.0
 11
1084.7270424206
 21
-352.3637877529
 31
0.0
  0
SPLINE
  5
32C
330
1F
100
AcDbEntity
  8
0
  6
Continuous
 62
     7
370
    15
100
AcDbSpline
210
0.0
220
0.0
230
1.0
 70
     8
 71
     3
 72
    22
 73
    18
 74
     0
 42
0.000000001
 43
0.00000001
 40
0.0
 40
0.0
 40
0.0
 40
0.0
 40
0.0424483077791312
 40
0.1226359909778161
 40
0.2089109172256322
 40
0.3120083335381822
 40
0.3621940280582082
 40
0.4135782400711069
 40
0.4821781140382325
 40
0.5511347597080926
 40
0.6347837472049297
 40
0.694471741972896
 40
0.7558514105005919
 40
0.8161948057623828
 40
0.8787131075719091
 40
0.9629714531344009
 40
1.0
 40
1.0
 40
1.0
 40
1.0
 10
1086.426251633862
 20
-380.8354066436966
 30
0.0
 10
1086.446224893873
 20
-380.8608736435029
 30
0.0
 10
1086.503928973557
 20
-380.9344495036936
 30
0.0
 10
1085.787539712054
 20
-380.0211390651727
 30
0.0
 10
1084.455380541006
 20
-378.2378388165064
 30
0.0
 10
1082.94270046481
 20
-375.9972566555448
 30
0.0
 10
1081.730859073949
 20
-373.7545877400833
 30
0.0
 10
1080.859308136417
 20
-371.6897172663149
 30
0.0
 10
1080.270591210476
 20
-369.1181553508728
 30
0.0
 10
1080.51331062082
 20
-365.984134092757
 30
0.0
 10
1081.545118983938
 20
-363.2951563899212
 30
0.0
 10
1082.767061221175
 20
-361.0623673638273
 30
0.0
 10
1083.884594165807
 20
-359.3280057209795
 30
0.0
 10
1084.940382503131
 20
-357.8389634862757
 30
0.0
 10
1085.916441429876
 20
-356.541029366414
 30
0.0
 10
1086.462560108395
 20
-355.8457742033972
 30
0.0
 10
1086.512006767099
 20
-355.7829634970353
 30
0.0
 10
1086.527102692822
 20
-355.7637875651796
 30
0.0
  0
SPLINE
  5
32D
330
1F
100
AcDbEntity
  8
0
  6
Continuous
 62
     7
370
    15
100
AcDbSpline
210
0.0
220
0.0
230
1.0
 70
     8
 71
     3
 72
    22
 73
    18
 74
     0
 42
0.000000001
 43
0.00000001
 40
0.0
 40
0.0
 40
0.0
 40
0.0
 40
0.0870775812606074
 40
0.1738036116164633
 40
0.2313488319257404
 40
0.2905522838601066
 40
0.3488897217244132
 40
0.4089779368134289
 40
0.4779438267860591
 40
0.5473139395810306
 40
0.6291801466842383
 40
0.6881380883678798
 40
0.7487577316049793
 40
0.8086819419772051
 40
0.8706629399962327
 40
0.9564113722198467
 40
1.0
 40
1.0
 40
1.0
 40
1.0
 10
1054.527157052258
 20
-355.7637875651796
 30
0.0
 10
1054.609748881677
 20
-355.8679240986702
 30
0.0
 10
1054.774599099553
 20
-356.0757767440913
 30
0.0
 10
1055.821210195222
 20
-357.4371800843843
 30
0.0
 10
1056.947969503003
 20
-359.0079930144865
 30
0.0
 10
1058.018913150967
 20
-360.6283077343781
 30
0.0
 10
1059.099440503177
 20
-362.5067210726164
 30
0.0
 10
1060.104287104153
 20
-364.7408119480389
 30
0.0
 10
1060.767523396547
 20
-367.4211105290783
 30
0.0
 10
1060.585350120392
 20
-370.549268675405
 30
0.0
 10
1059.598355843879
 20
-373.2368514302916
 30
0.0
 10
1058.407755002617
 20
-375.4622963697948
 30
0.0
 10
1057.301051593458
 20
-377.2052762546906
 30
0.0
 10
1056.236274451243
 20
-378.7209039368673
 30
0.0
 10
1055.241916104647
 20
-380.052456433879
 30
0.0
 10
1054.553325403694
 20
-380.9307391643758
 30
0.0
 10
1054.609183165188
 20
-380.8594366985281
 30
0.0
 10
1054.628008111218
 20
-380.8354066436966
 30
0.0
  0
LWPOLYLINE
  5
32E
330
1F
100
AcDbEntity
  8
0
  6
Continuous
 62
     7
370
    15
100
AcDbPolyline
 90
       13
 70
   128
 43
0.0
 10
500.6658966381
 20
-355.8803239589
 10
500.4181797344
 20
-356.0271022593
 10
499.5568926174
 20
-356.5109038478
 10
498.0502064068
 20
-357.246857298
 10
495.7901174862
 20
-358.032226724
 10
493.7200481732
 20
-358.349943695
 10
491.5816719372
 20
-358.2346981143
 10
489.707940324
 20
-357.7736710882
 10
487.8960783322
 20
-357.0471947765
 10
486.387127145
 20
-356.2671338891
 10
485.7184822399
 20
-355.8786326771
 10
485.6936867077
 20
-355.8637873953
 10
485.6936867077
 20
-355.8637873953
  0
LWPOLYLINE
  5
32F
330
1F
100
AcDbEntity
  8
0
  6
Continuous
 62
     7
370
    15
100
AcDbPolyline
 90
       13
 70
   128
 43
0.0
 10
-12.6674835842
 20
-355.8803239589
 10
-12.9150812786
 20
-356.0271022593
 10
-13.7763683956
 20
-356.5109038478
 10
-15.2830546062
 20
-357.246857298
 10
-17.5432031315
 20
-358.032226724
 10
-19.6132128399
 20
-358.349943695
 10
-21.7515890758
 20
-358.2346981143
 10
-23.6253802936
 20
-357.7736710882
 10
-25.4372422855
 20
-357.0471947765
 10
-26.946133868
 20
-356.2671338891
 10
-27.6148383777
 20
-355.8786326771
 10
-27.6395743053
 20
-355.8637873953
 10
-27.6395743053
 20
-355.8637873953
  0
SPLINE
  5
330
330
1F
100
AcDbEntity
  8
0
  6
Continuous
 62
     7
370
    15
100
AcDbSpline
210
0.0
220
0.0
230
1.0
 70
     8
 71
     3
 72
    13
 73
     9
 74
     0
 42
0.000000001
 43
0.00000001
 40
0.0
 40
0.0
 40
0.0
 40
0.0
 40
0.1503027698471013
 40
0.31190805097316
 40
0.4904255492302756
 40
0.6920130005257253
 40
0.8499268508003817
 40
0.9999999999999999
 40
0.9999999999999999
 40
0.9999999999999999
 40
0.9999999999999999
 10
-526.0007627580077
 20
-355.8803239589412
 30
0.0
 10
-526.0440706882092
 20
-355.9067906547651
 30
0.0
 10
-526.1339432309082
 20
-355.9617142966812
 30
0.0
 10
-527.0721511409538
 20
-356.5043043644685
 30
0.0
 10
-528.6013359227661
 20
-357.2821980063204
 30
0.0
 10
-530.6343301966039
 20
-358.0405938682953
 30
0.0
 10
-532.9077352257981
 20
-358.4436527146328
 30
0.0
 10
-534.296296416563
 20
-358.3072151568996
 30
0.0
 10
-534.9729020885885
 20
-358.2407330846269
 30
0.0
  0
SPLINE
  5
331
330
1F
100
AcDbEntity
  8
0
  6
Continuous
 62
     7
370
    15
100
AcDbSpline
210
0.0
220
0.0
230
1.0
 70
     8
 71
     3
 72
    12
 73
     8
 74
     0
 42
0.000000001
 43
0.00000001
 40
0.0
 40
0.0
 40
0.0
 40
0.0
 40
0.0455999210837049
 40
0.3148709907568857
 40
0.627905768468467
 40
0.9305267127661404
 40
1.0
 40
1.0
 40
1.0
 40
1.0
 10
-536.5923989370227
 20
-357.8637877231319
 30
0.0
 10
-536.7156690546728
 20
-357.8346345249373
 30
0.0
 10
-537.566858775022
 20
-357.6333294309561
 30
0.0
 10
-538.9278122955277
 20
-356.9792560992617
 30
0.0
 10
-540.4024633266727
 20
-356.2162975121635
 30
0.0
 10
-540.9399352520575
 20
-355.8830734555466
 30
0.0
 10
-540.9677151542356
 20
-355.8668217353467
 30
0.0
 10
-540.9729019079119
 20
-355.8637873953064
 30
0.0
  0
LWPOLYLINE
  5
332
330
1F
100
AcDbEntity
  8
0
  6
Continuous
 62
     7
370
    15
100
AcDbPolyline
 90
       13
 70
   128
 43
0.0
 10
1013.9990980465
 20
-355.8803239589
 10
1013.7515003521
 20
-356.0271022593
 10
1012.8902132351
 20
-356.5109038478
 10
1011.3835270245
 20
-357.246857298
 10
1009.1233188946
 20
-358.032226724
 10
1007.0533687908
 20
-358.349943695
 10
1004.9149925549
 20
-358.2346981143
 10
1003.0412609417
 20
-357.7736710882
 10
1001.2292797406
 20
-357.0471947765
 10
999.7204477627
 20
-356.2671338891
 10
999.0518028576
 20
-355.8786326771
 10
999.0270073254
 20
-355.8637873953
 10
999.0270073254
 20
-355.8637873953
  0
LINE
  5
333
330
1F
100
AcDbEntity
  8
0
  6
Continuous
 62
     7
370
    15
100
AcDbLine
 10
1036.502235635
 20
-335.8637876095
 30
0.0
 11
1036.5270311672
 21
-335.8637876095
 31
0.0
  0
LINE
  5
334
330
1F
100
AcDbEntity
  8
0
  6
Continuous
 62
     7
370
    15
100
AcDbLine
 10
976.5269691784
 20
-335.8637876095
 30
0.0
 11
1036.502235635
 21
-335.8637876095
 31
0.0
  0
LINE
  5
335
330
1F
100
AcDbEntity
  8
0
  6
Continuous
 62
     7
370
    15
100
AcDbLine
 10
1036.5270311672
 20
-333.8637875145
 30
0.0
 11
976.5269691784
 21
-333.8637875145
 31
0.0
  0
LINE
  5
336
330
1F
100
AcDbEntity
  8
0
  6
Continuous
 62
     7
370
    15
100
AcDbLine
 10
1021.5270454724
 20
-337.8637877045
 30
0.0
 11
991.5269548733
 21
-337.8637877045
 31
0.0
  0
LINE
  5
337
330
1F
100
AcDbEntity
  8
0
  6
Continuous
 62
     7
370
    15
100
AcDbLine
 10
9.8355943997
 20
-335.8637876095
 30
0.0
 11
9.8603899319
 21
-335.8637876095
 31
0.0
  0
LINE
  5
338
330
1F
100
AcDbEntity
  8
0
  6
Continuous
 62
     7
370
    15
100
AcDbLine
 10
-50.1396124523
 20
-335.8637876095
 30
0.0
 11
9.8355943997
 21
-335.8637876095
 31
0.0
  0
LINE
  5
339
330
1F
100
AcDbEntity
  8
0
  6
Continuous
 62
     7
370
    15
100
AcDbLine
 10
9.8603899319
 20
-333.8637875145
 30
0.0
 11
-50.1396124523
 21
-333.8637875145
 31
0.0
  0
LINE
  5
33A
330
1F
100
AcDbEntity
  8
0
  6
Continuous
 62
     7
370
    15
100
AcDbLine
 10
-5.139595763
 20
-337.8637877045
 30
0.0
 11
-35.1395969551
 21
-337.8637877045
 31
0.0
  0
LINE
  5
33B
330
1F
100
AcDbEntity
  8
0
  6
Continuous
 62
     7
370
    15
100
AcDbLine
 10
-503.4729027461
 20
-333.8637875145
 30
0.0
 11
-563.472901405
 21
-333.8637875145
 31
0.0
  0
LINE
  5
33C
330
1F
100
AcDbEntity
  8
0
  6
Continuous
 62
     7
370
    15
100
AcDbLine
 10
-503.4977169048
 20
-335.8637876095
 30
0.0
 11
-503.4729027461
 21
-335.8637876095
 31
0.0
  0
LINE
  5
33D
330
1F
100
AcDbEntity
  8
0
  6
Continuous
 62
     7
370
    15
100
AcDbLine
 10
-563.472901405
 20
-335.8637876095
 30
0.0
 11
-503.4977169048
 21
-335.8637876095
 31
0.0
  0
LINE
  5
33E
330
1F
100
AcDbEntity
  8
0
  6
Continuous
 62
     7
370
    15
100
AcDbLine
 10
-518.4729024108
 20
-337.8637877045
 30
0.0
 11
-548.4729017403
 21
-337.8637877045
 31
0.0
  0
LINE
  5
33F
330
1F
100
AcDbEntity
  8
0
  6
Continuous
 62
     7
370
    15
100
AcDbLine
 10
523.1937105496
 20
-333.8637875145
 30
0.0
 11
463.1937081654
 21
-333.8637875145
 31
0.0
  0
LINE
  5
340
330
1F
100
AcDbEntity
  8
0
  6
Continuous
 62
     7
370
    15
100
AcDbLine
 10
523.1689150173
 20
-335.8637876095
 30
0.0
 11
523.1937105496
 21
-335.8637876095
 31
0.0
  0
LINE
  5
341
330
1F
100
AcDbEntity
  8
0
  6
Continuous
 62
     7
370
    15
100
AcDbLine
 10
463.1937081654
 20
-335.8637876095
 30
0.0
 11
523.1689150173
 21
-335.8637876095
 31
0.0
  0
LINE
  5
342
330
1F
100
AcDbEntity
  8
0
  6
Continuous
 62
     7
370
    15
100
AcDbLine
 10
508.1937248547
 20
-337.8637877045
 30
0.0
 11
478.1937534649
 21
-337.8637877045
 31
0.0
  0
LINE
  5
343
330
1F
100
AcDbEntity
  8
0
  6
Continuous
 62
     8
370
    15
100
AcDbLine
 10
172.1950108845
 20
-355.8363767093
 30
0.0
 11
201.8591697056
 21
-355.8363767093
 31
0.0
  0
LINE
  5
344
330
1F
100
AcDbEntity
  8
0
  6
Continuous
 62
     8
370
    15
100
AcDbLine
 10
202.0270759899
 20
-356.0337872928
 30
0.0
 11
172.0271046002
 21
-356.0337872928
 31
0.0
  0
LINE
  5
345
330
1F
100
AcDbEntity
  8
0
  6
Continuous
 62
     8
370
    15
100
AcDbLine
 10
201.6923363049
 20
-357.1637870496
 30
0.0
 11
202.0270759899
 21
-357.1637870496
 31
0.0
  0
LINE
  5
346
330
1F
100
AcDbEntity
  8
0
  6
Continuous
 62
     8
370
    15
100
AcDbLine
 10
172.0271046002
 20
-357.1637870496
 30
0.0
 11
201.6923363049
 21
-357.1637870496
 31
0.0
  0
LINE
  5
347
330
1F
100
AcDbEntity
  8
0
  6
Continuous
 62
     8
370
    15
100
AcDbLine
 10
196.55948232
 20
-357.5637882328
 30
0.0
 11
177.277081712
 21
-357.5637882328
 31
0.0
  0
LINE
  5
348
330
1F
100
AcDbEntity
  8
0
  6
Continuous
 62
     8
370
    15
100
AcDbLine
 10
196.7770988781
 20
-357.5637882328
 30
0.0
 11
196.55948232
 21
-357.5637882328
 31
0.0
  0
LINE
  5
349
330
1F
100
AcDbEntity
  8
0
  6
Continuous
 62
     8
370
    15
100
AcDbLine
 10
-578.8049836915
 20
-355.8363767093
 30
0.0
 11
-549.1408211451
 21
-355.8363767093
 31
0.0
  0
LINE
  5
34A
330
1F
100
AcDbEntity
  8
0
  6
Continuous
 62
     8
370
    15
100
AcDbLine
 10
-548.9729018222
 20
-356.0337872928
 30
0.0
 11
-578.9729011517
 21
-356.0337872928
 31
0.0
  0
LINE
  5
34B
330
1F
100
AcDbEntity
  8
0
  6
Continuous
 62
     8
370
    15
100
AcDbLine
 10
-549.307669447
 20
-357.1637870496
 30
0.0
 11
-548.9729018222
 21
-357.1637870496
 31
0.0
  0
LINE
  5
34C
330
1F
100
AcDbEntity
  8
0
  6
Continuous
 62
     8
370
    15
100
AcDbLine
 10
-578.9729011517
 20
-357.1637870496
 30
0.0
 11
-549.307669447
 21
-357.1637870496
 31
0.0
  0
LINE
  5
34D
330
1F
100
AcDbEntity
  8
0
  6
Continuous
 62
     8
370
    15
100
AcDbLine
 10
-554.4405010801
 20
-357.5637882328
 30
0.0
 11
-573.7229016881
 21
-357.5637882328
 31
0.0
  0
LINE
  5
34E
330
1F
100
AcDbEntity
  8
0
  6
Continuous
 62
     8
370
    15
100
AcDbLine
 10
-554.2229012858
 20
-357.5637882328
 30
0.0
 11
-554.4405010801
 21
-357.5637882328
 31
0.0
  0
LINE
  5
34F
330
1F
100
AcDbEntity
  8
0
  6
Continuous
 62
     8
370
    15
100
AcDbLine
 10
-576.4729035359
 20
-392.6954010254
 30
0.0
 11
-551.4729013007
 21
-392.6954010254
 31
0.0
  0
LINE
  5
350
330
1F
100
AcDbEntity
  8
0
  6
Continuous
 62
     8
370
    15
100
AcDbLine
 10
-551.638965429
 20
-392.8924986845
 30
0.0
 11
-576.3068375449
 21
-392.8924986845
 31
0.0
  0
LINE
  5
351
330
1F
100
AcDbEntity
  8
0
  6
Continuous
 62
     8
370
    15
100
AcDbLine
 10
174.527102216
 20
-392.6954010254
 30
0.0
 11
199.5270783741
 21
-392.6954010254
 31
0.0
  0
LINE
  5
352
330
1F
100
AcDbEntity
  8
0
  6
Continuous
 62
     8
370
    15
100
AcDbLine
 10
199.3610198338
 20
-392.8924986845
 30
0.0
 11
174.6931607563
 21
-392.8924986845
 31
0.0
  0
LINE
  5
353
330
1F
100
AcDbEntity
  8
0
  6
Continuous
 62
     8
370
    15
100
AcDbLine
 10
-614.472902314
 20
-394.293788982
 30
0.0
 11
-584.4729011219
 21
-394.293788982
 31
0.0
  0
LINE
  5
354
330
1F
100
AcDbEntity
  8
0
  6
Continuous
 62
     8
370
    15
100
AcDbLine
 10
-584.6408223074
 20
-394.4911995655
 30
0.0
 11
-614.3049811285
 21
-394.4911995655
 31
0.0
  0
LINE
  5
355
330
1F
100
AcDbEntity
  8
0
  6
Continuous
 62
     8
370
    15
100
AcDbLine
 10
1055.527084573
 20
-394.293788982
 30
0.0
 11
1085.5270559628
 21
-394.293788982
 31
0.0
  0
LINE
  5
356
330
1F
100
AcDbEntity
  8
0
  6
Continuous
 62
     8
370
    15
100
AcDbLine
 10
1085.3592092831
 20
-394.4911995655
 30
0.0
 11
1055.695050462
 21
-394.4911995655
 31
0.0
  0
LINE
  5
357
330
1F
100
AcDbEntity
  8
0
  6
Continuous
 62
     7
370
    15
100
AcDbLine
 10
-1149.2117639563
 20
2152.7820242579
 30
0.0
 11
-1159.0117622099
 21
2152.7820242579
 31
0.0
  0
LINE
  5
358
330
1F
100
AcDbEntity
  8
0
  6
Continuous
 62
     7
370
    15
100
AcDbLine
 10
-1159.0117622099
 20
2137.8820244233
 30
0.0
 11
-1149.2117639563
 21
2137.8820244233
 31
0.0
  0
LWPOLYLINE
  5
359
330
1F
100
AcDbEntity
  8
0
  6
Continuous
 62
     7
370
    15
100
AcDbPolyline
 90
        3
 70
   128
 43
0.0
 10
-1149.2117639563
 20
2137.8820244233
 10
-1148.4314013204
 20
2137.9588832158
 10
-1148.1783386252
 20
2138.0178256902
  0
LWPOLYLINE
  5
35A
330
1F
100
AcDbEntity
  8
0
  6
Continuous
 62
     7
370
    15
100
AcDbPolyline
 90
        3
 70
   128
 43
0.0
 10
-1148.1783386252
 20
2152.646222991
 10
-1148.4314013204
 20
2152.7051654655
 10
-1149.2117639563
 20
2152.7820242579
  0
LINE
  5
35B
330
1F
100
AcDbEntity
  8
0
  6
Continuous
 62
     7
370
    15
100
AcDbLine
 10
-1159.0117622099
 20
2152.7820242579
 30
0.0
 11
-1159.2117618701
 21
2152.582024132
 31
0.0
  0
LINE
  5
35C
330
1F
100
AcDbEntity
  8
0
  6
Continuous
 62
     7
370
    15
100
AcDbLine
 10
-1159.2117618701
 20
2138.0820245492
 30
0.0
 11
-1159.0117622099
 21
2137.8820244233
 31
0.0
  0
LINE
  5
35D
330
1F
100
AcDbEntity
  8
0
  6
Continuous
 62
     7
370
    15
100
AcDbLine
 10
-1159.4117615304
 20
2137.8820244233
 30
0.0
 11
-1159.2117618701
 21
2138.0820245492
 31
0.0
  0
LINE
  5
35E
330
1F
100
AcDbEntity
  8
0
  6
Continuous
 62
     7
370
    15
100
AcDbLine
 10
-1159.2117618701
 20
2152.582024132
 30
0.0
 11
-1159.4117615304
 21
2152.7820242579
 31
0.0
  0
LINE
  5
35F
330
1F
100
AcDbEntity
  8
0
  6
Continuous
 62
     7
370
    15
100
AcDbLine
 10
-1159.4117615304
 20
2152.7820242579
 30
0.0
 11
-1163.1109189174
 21
2152.7820242579
 31
0.0
  0
LINE
  5
360
330
1F
100
AcDbEntity
  8
0
  6
Continuous
 62
     7
370
    15
100
AcDbLine
 10
-1165.7490689239
 20
2152.7820242579
 30
0.0
 11
-1165.8105846426
 21
2152.7820242579
 31
0.0
  0
LINE
  5
361
330
1F
100
AcDbEntity
  8
0
  6
Continuous
 62
     7
370
    15
100
AcDbLine
 10
-1165.8449541709
 20
2137.8820244233
 30
0.0
 11
-1165.7490689239
 21
2137.8820244233
 31
0.0
  0
LINE
  5
362
330
1F
100
AcDbEntity
  8
0
  6
Continuous
 62
     7
370
    15
100
AcDbLine
 10
-1163.1109189174
 20
2137.8820244233
 30
0.0
 11
-1159.4117615304
 21
2137.8820244233
 31
0.0
  0
LINE
  5
363
330
1F
100
AcDbEntity
  8
0
  6
Continuous
 62
     7
370
    15
100
AcDbLine
 10
-1143.3817628703
 20
2198.8320247281
 30
0.0
 11
-1144.5117626271
 21
2198.8320247281
 31
0.0
  0
LINE
  5
364
330
1F
100
AcDbEntity
  8
0
  6
Continuous
 62
     7
370
    15
100
AcDbLine
 10
-1144.5117626271
 20
2168.832023536
 30
0.0
 11
-1143.3817628703
 21
2168.832023536
 31
0.0
  0
ARC
  5
365
330
1F
100
AcDbEntity
  8
0
  6
Continuous
 62
     7
370
    15
100
AcDbCircle
 10
-1144.511763092
 20
2198.6320243406
 30
0.0
 40
0.2000000000000455
100
AcDbArc
 50
90.0
 51
180.0
  0
ARC
  5
366
330
1F
100
AcDbEntity
  8
0
  6
Continuous
 62
     7
370
    15
100
AcDbCircle
 10
-1144.511763092
 20
2169.0320243406
 30
0.0
 40
0.2000000000002728
100
AcDbArc
 50
180.0
 51
270.0
  0
ARC
  5
367
330
1F
100
AcDbEntity
  8
0
  6
Continuous
 62
     7
370
    15
100
AcDbCircle
 10
-1143.3817622433
 20
2169.0320243406
 30
0.0
 40
0.2000000000003763
100
AcDbArc
 50
270.0
 51
350.7694259591
  0
ARC
  5
368
330
1F
100
AcDbEntity
  8
0
  6
Continuous
 62
     7
370
    15
100
AcDbCircle
 10
-1143.3817622433
 20
2198.6320243406
 30
0.0
 40
0.2000000000003034
100
AcDbArc
 50
9.2305740408
 51
90.0
  0
ARC
  5
369
330
1F
100
AcDbEntity
  8
0
  6
Continuous
 62
     7
370
    15
100
AcDbCircle
 10
-1261.6304491743
 20
2188.2488929489
 30
0.0
 40
120.0000000000001
100
AcDbArc
 50
350.7694259592
 51
356.6681598255
  0
ARC
  5
36A
330
1F
100
AcDbEntity
  8
0
  6
Continuous
 62
     7
370
    15
100
AcDbCircle
 10
-1261.6304491743
 20
2179.4151557324
 30
0.0
 40
120.0000000000001
100
AcDbArc
 50
3.3313005321
 51
9.2305740408
  0
ARC
  5
36B
330
1F
100
AcDbEntity
  8
0
  6
Continuous
 62
     7
370
    15
100
AcDbCircle
 10
-1144.911763092
 20
2193.7820243406
 30
0.0
 40
0.2000000000002728
100
AcDbArc
 50
270.0
 51
0.0
  0
ARC
  5
36C
330
1F
100
AcDbEntity
  8
0
  6
Continuous
 62
     7
370
    15
100
AcDbCircle
 10
-1144.911763092
 20
2173.8820243406
 30
0.0
 40
0.2000000000002728
100
AcDbArc
 50
0.0
 51
90.0
  0
LINE
  5
36D
330
1F
100
AcDbEntity
  8
0
  6
Continuous
 62
     7
370
    15
100
AcDbLine
 10
-1144.9117638102
 20
2193.5820252645
 30
0.0
 11
-1145.2117633006
 21
2193.5820252645
 31
0.0
  0
LINE
  5
36E
330
1F
100
AcDbEntity
  8
0
  6
Continuous
 62
     7
370
    15
100
AcDbLine
 10
-1145.2117633006
 20
2174.0820248622
 30
0.0
 11
-1144.9117638102
 21
2174.0820248622
 31
0.0
  0
LINE
  5
36F
330
1F
100
AcDbEntity
  8
0
  6
Continuous
 62
     7
370
    15
100
AcDbLine
 10
-1180.0433766029
 20
2171.3320248771
 30
0.0
 11
-1178.7117641351
 21
2171.3320248771
 31
0.0
  0
LINE
  5
370
330
1F
100
AcDbEntity
  8
0
  6
Continuous
 62
     7
370
    15
100
AcDbLine
 10
-1178.7117641351
 20
2196.332023387
 30
0.0
 11
-1180.0433766029
 21
2196.332023387
 31
0.0
  0
ARC
  5
371
330
1F
100
AcDbEntity
  8
0
  6
Continuous
 62
     7
370
    15
100
AcDbCircle
 10
-1180.0433757943
 20
2196.1320243406
 30
0.0
 40
0.2000000000001795
100
AcDbArc
 50
90.0
 51
170.2307482568
  0
ARC
  5
372
330
1F
100
AcDbEntity
  8
0
  6
Continuous
 62
     7
370
    15
100
AcDbCircle
 10
-1180.0433757943
 20
2171.5320243406
 30
0.0
 40
0.2000000000001023
100
AcDbArc
 50
189.7692517431
 51
270.0
  0
ARC
  5
373
330
1F
100
AcDbEntity
  8
0
  6
Continuous
 62
     7
370
    15
100
AcDbCircle
 10
-1061.9805835038
 20
2175.80428279
 30
0.0
 40
120.0000000000002
100
AcDbArc
 50
170.2307482568
 51
176.16417102
  0
ARC
  5
374
330
1F
100
AcDbEntity
  8
0
  6
Continuous
 62
     7
370
    15
100
AcDbCircle
 10
-1061.9805835038
 20
2191.8597658912
 30
0.0
 40
120.0000000000003
100
AcDbArc
 50
183.83582898
 51
189.7692517432
  0
LINE
  5
375
330
1F
100
AcDbEntity
  8
0
  6
Continuous
 62
     7
370
    15
100
AcDbLine
 10
-1145.2117633006
 20
2212.8320270228
 30
0.0
 11
-1146.7117626152
 21
2212.8320270228
 31
0.0
  0
LINE
  5
376
330
1F
100
AcDbEntity
  8
0
  6
Continuous
 62
     7
370
    15
100
AcDbLine
 10
-1164.7117618403
 20
2212.8320270228
 30
0.0
 11
-1166.2117648802
 21
2212.8320270228
 31
0.0
  0
LINE
  5
377
330
1F
100
AcDbEntity
  8
0
  6
Continuous
 62
     7
370
    15
100
AcDbLine
 10
-1147.5877255133
 20
2154.8320240352
 30
0.0
 11
-1147.512413182
 21
2154.8320240352
 31
0.0
  0
LINE
  5
378
330
1F
100
AcDbEntity
  8
0
  6
Continuous
 62
     7
370
    15
100
AcDbLine
 10
-1146.7117626152
 20
2212.8320270228
 30
0.0
 11
-1147.7321922711
 21
2212.8320270228
 31
0.0
  0
ARC
  5
379
330
1F
100
AcDbEntity
  8
0
  6
Continuous
 62
     7
370
    15
100
AcDbCircle
 10
-1155.7378145153
 20
2222.4320243406
 30
0.0
 40
12.50000000000006
100
AcDbArc
 50
230.1746287392
 51
309.8253712608
  0
LINE
  5
37A
330
1F
100
AcDbEntity
  8
0
  6
Continuous
 62
     7
370
    15
100
AcDbLine
 10
-1163.7434359572
 20
2212.8320270228
 30
0.0
 11
-1164.7117618403
 21
2212.8320270228
 31
0.0
  0
LINE
  5
37B
330
1F
100
AcDbEntity
  8
0
  6
Continuous
 62
     7
370
    15
100
AcDbLine
 10
-1172.4117617986
 20
2168.832023536
 30
0.0
 11
-1167.0117635212
 21
2168.832023536
 31
0.0
  0
LINE
  5
37C
330
1F
100
AcDbEntity
  8
0
  6
Continuous
 62
     7
370
    15
100
AcDbLine
 10
-1167.0117635212
 20
2198.8320247281
 30
0.0
 11
-1172.4117617986
 21
2198.8320247281
 31
0.0
  0
LINE
  5
37D
330
1F
100
AcDbEntity
  8
0
  6
Continuous
 62
     7
370
    15
100
AcDbLine
 10
-1167.0117635212
 20
2168.832023536
 30
0.0
 11
-1166.7117621681
 21
2169.132024889
 31
0.0
  0
LINE
  5
37E
330
1F
100
AcDbEntity
  8
0
  6
Continuous
 62
     7
370
    15
100
AcDbLine
 10
-1166.7117621681
 20
2198.532023375
 30
0.0
 11
-1167.0117635212
 21
2198.8320247281
 31
0.0
  0
LINE
  5
37F
330
1F
100
AcDbEntity
  8
0
  6
Continuous
 62
     7
370
    15
100
AcDbLine
 10
-1172.4117617986
 20
2198.8320247281
 30
0.0
 11
-1172.7117631516
 21
2198.532023375
 31
0.0
  0
LINE
  5
380
330
1F
100
AcDbEntity
  8
0
  6
Continuous
 62
     7
370
    15
100
AcDbLine
 10
-1172.7117631516
 20
2169.132024889
 30
0.0
 11
-1172.4117617986
 21
2168.832023536
 31
0.0
  0
LINE
  5
381
330
1F
100
AcDbEntity
  8
0
  6
Continuous
 62
     7
370
    15
100
AcDbLine
 10
-1166.7117621681
 20
2174.0820248622
 30
0.0
 11
-1166.2117648802
 21
2174.0820248622
 31
0.0
  0
LINE
  5
382
330
1F
100
AcDbEntity
  8
0
  6
Continuous
 62
     7
370
    15
100
AcDbLine
 10
-1166.2117648802
 20
2193.5820252645
 30
0.0
 11
-1166.7117621681
 21
2193.5820252645
 31
0.0
  0
LINE
  5
383
330
1F
100
AcDbEntity
  8
0
  6
Continuous
 62
     7
370
    15
100
AcDbLine
 10
-1172.7117631516
 20
2198.8320247281
 30
0.0
 11
-1178.7117641351
 21
2198.8320247281
 31
0.0
  0
LINE
  5
384
330
1F
100
AcDbEntity
  8
0
  6
Continuous
 62
     7
370
    15
100
AcDbLine
 10
-1156.6235940835
 20
54.331944232
 30
0.0
 11
-1156.9028753719
 21
70.3319766569
 31
0.0
  0
LINE
  5
385
330
1F
100
AcDbEntity
  8
0
  6
Continuous
 62
     7
370
    15
100
AcDbLine
 10
-1161.5206520936
 20
70.3319766569
 30
0.0
 11
-1161.799933382
 21
54.331944232
 31
0.0
  0
ARC
  5
386
330
1F
100
AcDbEntity
  8
0
  6
Continuous
 62
     7
370
    15
100
AcDbCircle
 10
-1181.6417639407
 20
2160.1320243406
 30
0.0
 40
0.2000000000003034
100
AcDbArc
 50
90.0
 51
170.7694259592
  0
ARC
  5
387
330
1F
100
AcDbEntity
  8
0
  6
Continuous
 62
     7
370
    15
100
AcDbCircle
 10
-1181.6417639407
 20
2130.5320243406
 30
0.0
 40
0.2000000000003034
100
AcDbArc
 50
189.2305740408
 51
270.0
  0
LINE
  5
388
330
1F
100
AcDbEntity
  8
0
  6
Continuous
 62
     7
370
    15
100
AcDbLine
 10
-1181.6417645595
 20
2130.3320246759
 30
0.0
 11
-1180.3117614171
 21
2130.3320246759
 31
0.0
  0
LINE
  5
389
330
1F
100
AcDbEntity
  8
0
  6
Continuous
 62
     7
370
    15
100
AcDbLine
 10
-1180.3117614171
 20
2160.3320240054
 30
0.0
 11
-1181.6417645595
 21
2160.3320240054
 31
0.0
  0
ARC
  5
38A
330
1F
100
AcDbEntity
  8
0
  6
Continuous
 62
     7
370
    15
100
AcDbCircle
 10
-1063.3930770097
 20
2140.9151557324
 30
0.0
 40
120.0000000000003
100
AcDbArc
 50
170.7694259592
 51
176.4874053343
  0
ARC
  5
38B
330
1F
100
AcDbEntity
  8
0
  6
Continuous
 62
     7
370
    15
100
AcDbCircle
 10
-1063.3930770097
 20
2149.7488929489
 30
0.0
 40
120.0000000000001
100
AcDbArc
 50
183.5116471215
 51
189.2305740408
  0
LINE
  5
38C
330
1F
100
AcDbEntity
  8
0
  6
Continuous
 62
     7
370
    15
100
AcDbLine
 10
-1172.3117638311
 20
2165.3320238936
 30
0.0
 11
-1180.3117614171
 21
2165.3320238936
 31
0.0
  0
LINE
  5
38D
330
1F
100
AcDbEntity
  8
0
  6
Continuous
 62
     7
370
    15
100
AcDbLine
 10
-1180.3117614171
 20
2125.3320247877
 30
0.0
 11
-1172.3117638311
 21
2125.3320247877
 31
0.0
  0
LINE
  5
38E
330
1F
100
AcDbEntity
  8
0
  6
Continuous
 62
     7
370
    15
100
AcDbLine
 10
-1141.511763998
 20
2129.3320235807
 30
0.0
 11
-1139.7117633304
 21
2131.1320242482
 31
0.0
  0
LINE
  5
38F
330
1F
100
AcDbEntity
  8
0
  6
Continuous
 62
     7
370
    15
100
AcDbLine
 10
-1139.7117633304
 20
2159.532024433
 30
0.0
 11
-1141.511763998
 21
2161.3320251006
 31
0.0
  0
LINE
  5
390
330
1F
100
AcDbEntity
  8
0
  6
Continuous
 62
     7
370
    15
100
AcDbLine
 10
-1141.511763998
 20
2161.3320251006
 30
0.0
 11
-1172.3117638311
 21
2161.3320251006
 31
0.0
  0
LINE
  5
391
330
1F
100
AcDbEntity
  8
0
  6
Continuous
 62
     7
370
    15
100
AcDbLine
 10
-1172.3117638311
 20
2129.3320235807
 30
0.0
 11
-1141.511763998
 21
2129.3320235807
 31
0.0
  0
LINE
  5
392
330
1F
100
AcDbEntity
  8
0
  6
Continuous
 62
     7
370
    15
100
AcDbLine
 10
-1125.211763282
 20
2152.832024173
 30
0.0
 11
-1139.7117633304
 21
2152.832024173
 31
0.0
  0
LINE
  5
393
330
1F
100
AcDbEntity
  8
0
  6
Continuous
 62
     7
370
    15
100
AcDbLine
 10
-1139.7117633304
 20
2137.8320245083
 30
0.0
 11
-1125.211763282
 21
2137.8320245083
 31
0.0
  0
LINE
  5
394
330
1F
100
AcDbEntity
  8
0
  6
Continuous
 62
     7
370
    15
100
AcDbLine
 10
-1121.211763092
 20
2175.3320236701
 30
0.0
 11
-1123.211763187
 21
2175.3320236701
 31
0.0
  0
LINE
  5
395
330
1F
100
AcDbEntity
  8
0
  6
Continuous
 62
     7
370
    15
100
AcDbLine
 10
-1123.211763187
 20
2115.3320250112
 30
0.0
 11
-1121.211763092
 21
2115.3320250112
 31
0.0
  0
LINE
  5
396
330
1F
100
AcDbEntity
  8
0
  6
Continuous
 62
     7
370
    15
100
AcDbLine
 10
-1123.211763187
 20
2175.3320236701
 30
0.0
 11
-1125.211763282
 21
2160.3320240054
 31
0.0
  0
LINE
  5
397
330
1F
100
AcDbEntity
  8
0
  6
Continuous
 62
     7
370
    15
100
AcDbLine
 10
-1125.211763282
 20
2130.3320246759
 30
0.0
 11
-1123.211763187
 21
2115.3320250112
 31
0.0
  0
LINE
  5
398
330
1F
100
AcDbEntity
  8
0
  6
Continuous
 62
     7
370
    15
100
AcDbLine
 10
-1159.0117622099
 20
2143.6798039601
 30
0.0
 11
-1159.0117622099
 21
2152.7820242579
 31
0.0
  0
LINE
  5
399
330
1F
100
AcDbEntity
  8
0
  6
Continuous
 62
     7
370
    15
100
AcDbLine
 10
-1159.0117622099
 20
2137.8820244233
 30
0.0
 11
-1159.0117622099
 21
2143.6798039601
 31
0.0
  0
LINE
  5
39A
330
1F
100
AcDbEntity
  8
0
  6
Continuous
 62
     7
370
    15
100
AcDbLine
 10
-1159.2117618701
 20
2143.7241587798
 30
0.0
 11
-1159.2117618701
 21
2152.582024132
 31
0.0
  0
LINE
  5
39B
330
1F
100
AcDbEntity
  8
0
  6
Continuous
 62
     7
370
    15
100
AcDbLine
 10
-1159.2117618701
 20
2138.0820245492
 30
0.0
 11
-1159.2117618701
 21
2143.7241587798
 31
0.0
  0
LINE
  5
39C
330
1F
100
AcDbEntity
  8
0
  6
Continuous
 62
     7
370
    15
100
AcDbLine
 10
-1159.4117615304
 20
2143.6798039601
 30
0.0
 11
-1159.4117615304
 21
2152.7820242579
 31
0.0
  0
LINE
  5
39D
330
1F
100
AcDbEntity
  8
0
  6
Continuous
 62
     7
370
    15
100
AcDbLine
 10
-1159.4117615304
 20
2137.8820244233
 30
0.0
 11
-1159.4117615304
 21
2143.6798039601
 31
0.0
  0
CIRCLE
  5
39E
330
1F
100
AcDbEntity
  8
0
  6
Continuous
 62
     7
370
    15
100
AcDbCircle
 10
-1155.711763092
 20
2145.3320243406
 30
0.0
 40
10.50000000000023
  0
CIRCLE
  5
39F
330
1F
100
AcDbEntity
  8
0
  6
Continuous
 62
     7
370
    15
100
AcDbCircle
 10
-1155.711763092
 20
2145.3320243406
 30
0.0
 40
12.50000000000023
  0
LINE
  5
3A0
330
1F
100
AcDbEntity
  8
0
  6
Continuous
 62
     7
370
    15
100
AcDbLine
 10
-1179.2117614231
 20
60.3319861937
 30
0.0
 11
-1179.2117614231
 21
2110.3320241916
 31
0.0
  0
LINE
  5
3A1
330
1F
100
AcDbEntity
  8
0
  6
Continuous
 62
     7
370
    15
100
AcDbLine
 10
-1179.2117614231
 20
2110.3320241916
 30
0.0
 11
-1139.2117623172
 21
2110.3320241916
 31
0.0
  0
LINE
  5
3A2
330
1F
100
AcDbEntity
  8
0
  6
Continuous
 62
     7
370
    15
100
AcDbLine
 10
-1155.7117622277
 20
60.3319861937
 30
0.0
 11
-1139.2117623172
 21
60.3319861937
 31
0.0
  0
LINE
  5
3A3
330
1F
100
AcDbEntity
  8
0
  6
Continuous
 62
     7
370
    15
100
AcDbLine
 10
-1155.7117622277
 20
80.3319671202
 30
0.0
 11
-1155.7117622277
 21
60.3319861937
 31
0.0
  0
LINE
  5
3A4
330
1F
100
AcDbEntity
  8
0
  6
Continuous
 62
     7
370
    15
100
AcDbLine
 10
-1155.7117622277
 20
80.3319671202
 30
0.0
 11
-1162.7117615125
 21
80.3319671202
 31
0.0
  0
LINE
  5
3A5
330
1F
100
AcDbEntity
  8
0
  6
Continuous
 62
     7
370
    15
100
AcDbLine
 10
-1162.7117615125
 20
80.3319671202
 30
0.0
 11
-1162.7117615125
 21
60.3319861937
 31
0.0
  0
LINE
  5
3A6
330
1F
100
AcDbEntity
  8
0
  6
Continuous
 62
     7
370
    15
100
AcDbLine
 10
-1139.2117623172
 20
60.3319861937
 30
0.0
 11
-1139.2117623172
 21
2110.3320241916
 31
0.0
  0
LINE
  5
3A7
330
1F
100
AcDbEntity
  8
0
  6
Continuous
 62
     7
370
    15
100
AcDbLine
 10
-1179.2117614231
 20
60.3319861937
 30
0.0
 11
-1162.7117615125
 21
60.3319861937
 31
0.0
  0
LINE
  5
3A8
330
1F
100
AcDbEntity
  8
0
  6
Continuous
 62
     7
370
    15
100
AcDbLine
 10
-1144.7117622874
 20
2186.9413488555
 30
0.0
 11
-1144.7117622874
 21
2198.6320250678
 31
0.0
  0
LINE
  5
3A9
330
1F
100
AcDbEntity
  8
0
  6
Continuous
 62
     7
370
    15
100
AcDbLine
 10
-1144.7117622874
 20
2169.0320250589
 30
0.0
 11
-1144.7117622874
 21
2186.9413488555
 31
0.0
  0
LINE
  5
3AA
330
1F
100
AcDbEntity
  8
0
  6
Continuous
 62
     7
370
    15
100
AcDbLine
 10
-1141.8384998969
 20
2186.3890186894
 30
0.0
 11
-1141.8529167703
 21
2186.5794667053
 31
0.0
  0
LINE
  5
3AB
330
1F
100
AcDbEntity
  8
0
  6
Continuous
 62
     7
370
    15
100
AcDbLine
 10
-1141.8529167703
 20
2186.5794667053
 30
0.0
 11
-1141.8529167703
 21
2184.4385013926
 31
0.0
  0
LINE
  5
3AC
330
1F
100
AcDbEntity
  8
0
  6
Continuous
 62
     7
370
    15
100
AcDbLine
 10
-1141.8529167703
 20
2184.4385013926
 30
0.0
 11
-1141.8529167703
 21
2181.691055094
 31
0.0
  0
SPLINE
  5
3AD
330
1F
100
AcDbEntity
  8
0
  6
Continuous
 62
     7
370
    15
100
AcDbSpline
210
0.0
220
0.0
230
1.0
 70
     8
 71
     3
 72
     9
 73
     5
 74
     0
 42
0.000000001
 43
0.00000001
 40
0.0
 40
0.0
 40
0.0
 40
0.0
 40
0.7287302334243986
 40
1.0
 40
1.0
 40
1.0
 40
1.0
 10
-1141.852916770312
 20
2181.691055094003
 30
0.0
 10
-1141.839688726923
 20
2181.589978286461
 30
0.0
 10
-1141.821536545522
 20
2181.451275646024
 30
0.0
 10
-1141.83488603464
 20
2181.312564564957
 30
0.0
 10
-1141.838507347437
 20
2181.274936442375
 30
0.0
  0
LINE
  5
3AE
330
1F
100
AcDbEntity
  8
0
  6
Continuous
 62
     7
370
    15
100
AcDbLine
 10
-1146.7117626152
 20
2161.3320251006
 30
0.0
 11
-1146.7117626152
 21
2212.8320270228
 31
0.0
  0
LINE
  5
3AF
330
1F
100
AcDbEntity
  8
0
  6
Continuous
 62
     7
370
    15
100
AcDbLine
 10
-1145.2117633006
 20
2161.3320251006
 30
0.0
 11
-1145.2117633006
 21
2212.8320270228
 31
0.0
  0
LINE
  5
3B0
330
1F
100
AcDbEntity
  8
0
  6
Continuous
 62
     7
370
    15
100
AcDbLine
 10
-1166.2117648802
 20
2212.8320270228
 30
0.0
 11
-1166.2117648802
 21
2161.3320251006
 31
0.0
  0
LINE
  5
3B1
330
1F
100
AcDbEntity
  8
0
  6
Continuous
 62
     7
370
    15
100
AcDbLine
 10
-1164.7117618403
 20
2212.8320270228
 30
0.0
 11
-1164.7117618403
 21
2161.3320251006
 31
0.0
  0
LINE
  5
3B2
330
1F
100
AcDbEntity
  8
0
  6
Continuous
 62
     7
370
    15
100
AcDbLine
 10
-1147.7321922711
 20
2170.9198941487
 30
0.0
 11
-1147.7321922711
 21
2161.3320251006
 31
0.0
  0
LINE
  5
3B3
330
1F
100
AcDbEntity
  8
0
  6
Continuous
 62
     7
370
    15
100
AcDbLine
 10
-1147.7321922711
 20
2212.8320270228
 30
0.0
 11
-1147.7321922711
 21
2170.9198941487
 31
0.0
  0
LINE
  5
3B4
330
1F
100
AcDbEntity
  8
0
  6
Continuous
 62
     7
370
    15
100
AcDbLine
 10
-1163.7434359572
 20
2161.3320251006
 30
0.0
 11
-1163.7434359572
 21
2212.8320270228
 31
0.0
  0
LINE
  5
3B5
330
1F
100
AcDbEntity
  8
0
  6
Continuous
 62
     7
370
    15
100
AcDbLine
 10
-1142.7117638222
 20
2129.3320235807
 30
0.0
 11
-1142.7117638222
 21
2127.3320251155
 31
0.0
  0
LINE
  5
3B6
330
1F
100
AcDbEntity
  8
0
  6
Continuous
 62
     7
370
    15
100
AcDbLine
 10
-1143.2117629728
 20
2127.3320251155
 30
0.0
 11
-1143.2117629728
 21
2129.3320235807
 31
0.0
  0
LINE
  5
3B7
330
1F
100
AcDbEntity
  8
0
  6
Continuous
 62
     7
370
    15
100
AcDbLine
 10
-1161.2117621979
 20
2129.3320235807
 30
0.0
 11
-1161.2117621979
 21
2127.3320251155
 31
0.0
  0
LINE
  5
3B8
330
1F
100
AcDbEntity
  8
0
  6
Continuous
 62
     7
370
    15
100
AcDbLine
 10
-1161.7117632112
 20
2127.3320251155
 30
0.0
 11
-1161.7117632112
 21
2129.3320235807
 31
0.0
  0
LINE
  5
3B9
330
1F
100
AcDbEntity
  8
0
  6
Continuous
 62
     7
370
    15
100
AcDbLine
 10
-1167.0117635212
 20
2168.832023536
 30
0.0
 11
-1167.0117635212
 21
2198.8320247281
 31
0.0
  0
LINE
  5
3BA
330
1F
100
AcDbEntity
  8
0
  6
Continuous
 62
     7
370
    15
100
AcDbLine
 10
-1172.4117617986
 20
2198.8320247281
 30
0.0
 11
-1172.4117617986
 21
2168.832023536
 31
0.0
  0
LINE
  5
3BB
330
1F
100
AcDbEntity
  8
0
  6
Continuous
 62
     7
370
    15
100
AcDbLine
 10
-1166.7117621681
 20
2198.532023375
 30
0.0
 11
-1166.7117621681
 21
2169.132024889
 31
0.0
  0
LINE
  5
3BC
330
1F
100
AcDbEntity
  8
0
  6
Continuous
 62
     7
370
    15
100
AcDbLine
 10
-1142.7117638222
 20
2110.3320241916
 30
0.0
 11
-1142.7117638222
 21
2127.3320251155
 31
0.0
  0
LINE
  5
3BD
330
1F
100
AcDbEntity
  8
0
  6
Continuous
 62
     7
370
    15
100
AcDbLine
 10
-1172.7117631516
 20
2110.3320241916
 30
0.0
 11
-1172.7117631516
 21
2125.3320247877
 31
0.0
  0
LINE
  5
3BE
330
1F
100
AcDbEntity
  8
0
  6
Continuous
 62
     7
370
    15
100
AcDbLine
 10
-1142.7117638222
 20
2127.3320251155
 30
0.0
 11
-1172.3117638311
 21
2127.3320251155
 31
0.0
  0
LINE
  5
3BF
330
1F
100
AcDbEntity
  8
0
  6
Continuous
 62
     7
370
    15
100
AcDbLine
 10
-1172.7117631516
 20
2198.8320247281
 30
0.0
 11
-1172.7117631516
 21
2183.832024132
 31
0.0
  0
LINE
  5
3C0
330
1F
100
AcDbEntity
  8
0
  6
Continuous
 62
     7
370
    15
100
AcDbLine
 10
-1172.7117631516
 20
2183.832024132
 30
0.0
 11
-1178.7117641351
 21
2183.832024132
 31
0.0
  0
LINE
  5
3C1
330
1F
100
AcDbEntity
  8
0
  6
Continuous
 62
     7
370
    15
100
AcDbLine
 10
-1178.7117641351
 20
2198.8320247281
 30
0.0
 11
-1178.7117641351
 21
2183.832024132
 31
0.0
  0
LINE
  5
3C2
330
1F
100
AcDbEntity
  8
0
  6
Continuous
 62
     7
370
    15
100
AcDbLine
 10
-1178.7117641351
 20
2183.832024132
 30
0.0
 11
-1178.7117641351
 21
2165.3320238936
 31
0.0
  0
LINE
  5
3C3
330
1F
100
AcDbEntity
  8
0
  6
Continuous
 62
     7
370
    15
100
AcDbLine
 10
-1178.7117641351
 20
2125.3320247877
 30
0.0
 11
-1178.7117641351
 21
2110.3320241916
 31
0.0
  0
LINE
  5
3C4
330
1F
100
AcDbEntity
  8
0
  6
Continuous
 62
     7
370
    15
100
AcDbLine
 10
-1172.7117631516
 20
2183.832024132
 30
0.0
 11
-1172.7117631516
 21
2165.3320238936
 31
0.0
  0
LINE
  5
3C5
330
1F
100
AcDbEntity
  8
0
  6
Continuous
 62
     7
370
    15
100
AcDbLine
 10
-1172.7117631516
 20
2125.3320247877
 30
0.0
 11
-1172.7117631516
 21
2111.3320224929
 31
0.0
  0
LINE
  5
3C6
330
1F
100
AcDbEntity
  8
0
  6
Continuous
 62
     7
370
    15
100
AcDbLine
 10
-1173.7117614529
 20
2110.3320241916
 30
0.0
 11
-1172.7117631516
 21
2111.3320224929
 31
0.0
  0
LINE
  5
3C7
330
1F
100
AcDbEntity
  8
0
  6
Continuous
 62
     7
370
    15
100
AcDbLine
 10
-1173.2117641649
 20
54.331944232
 30
0.0
 11
-1173.2117641649
 21
50.3319957304
 31
0.0
  0
LINE
  5
3C8
330
1F
100
AcDbEntity
  8
0
  6
Continuous
 62
     7
370
    15
100
AcDbLine
 10
-1145.2117633006
 20
54.331944232
 30
0.0
 11
-1145.2117633006
 21
50.3319957304
 31
0.0
  0
LINE
  5
3C9
330
1F
100
AcDbEntity
  8
0
  6
Continuous
 62
     7
370
    15
100
AcDbLine
 10
-1173.2117641649
 20
50.3319957304
 30
0.0
 11
-1145.2117633006
 21
50.3319957304
 31
0.0
  0
LINE
  5
3CA
330
1F
100
AcDbEntity
  8
0
  6
Continuous
 62
     7
370
    15
100
AcDbLine
 10
-1173.2117641649
 20
54.331944232
 30
0.0
 11
-1145.2117633006
 21
54.331944232
 31
0.0
  0
LINE
  5
3CB
330
1F
100
AcDbEntity
  8
0
  6
Continuous
 62
     7
370
    15
100
AcDbLine
 10
-1159.9112857065
 20
70.3319766569
 30
0.0
 11
-1160.1823527298
 21
54.331944232
 31
0.0
  0
LINE
  5
3CC
330
1F
100
AcDbEntity
  8
0
  6
Continuous
 62
     7
370
    15
100
AcDbLine
 10
-1159.9112857065
 20
70.3319766569
 30
0.0
 11
-1158.512241759
 21
70.3319766569
 31
0.0
  0
LINE
  5
3CD
330
1F
100
AcDbEntity
  8
0
  6
Continuous
 62
     7
370
    15
100
AcDbLine
 10
-1158.512241759
 20
70.3319766569
 30
0.0
 11
-1158.2411747358
 21
54.331944232
 31
0.0
  0
LINE
  5
3CE
330
1F
100
AcDbEntity
  8
0
  6
Continuous
 62
     7
370
    15
100
AcDbLine
 10
-1158.512241759
 20
70.3319766569
 30
0.0
 11
-1156.9028753719
 21
70.3319766569
 31
0.0
  0
LINE
  5
3CF
330
1F
100
AcDbEntity
  8
0
  6
Continuous
 62
     7
370
    15
100
AcDbLine
 10
-1161.5206520936
 20
70.3319766569
 30
0.0
 11
-1159.9112857065
 21
70.3319766569
 31
0.0
  0
SPLINE
  5
3D0
330
1F
100
AcDbEntity
  8
0
  6
Continuous
 62
     7
370
    15
100
AcDbSpline
210
0.0
220
0.0
230
1.0
 70
     8
 71
     3
 72
     9
 73
     5
 74
     0
 42
0.000000001
 43
0.00000001
 40
0.0
 40
0.0
 40
0.0
 40
0.0
 40
0.5825260124023747
 40
1.0
 40
1.0
 40
1.0
 40
1.0
 10
-1183.155510195228
 20
2143.427419616952
 30
0.0
 10
-1183.169032030489
 20
2143.227099862419
 30
0.0
 10
-1183.192244444996
 20
2142.883218644639
 30
0.0
 10
-1183.171453986798
 20
2142.540879434974
 30
0.0
 10
-1183.16277451131
 20
2142.397961720004
 30
0.0
  0
SPLINE
  5
3D1
330
1F
100
AcDbEntity
  8
0
  6
Continuous
 62
     7
370
    15
100
AcDbSpline
210
0.0
220
0.0
230
1.0
 70
     8
 71
     3
 72
     9
 73
     5
 74
     0
 42
0.000000001
 43
0.00000001
 40
0.0
 40
0.0
 40
0.0
 40
0.0
 40
0.4999986045185357
 40
1.0
 40
1.0
 40
1.0
 40
1.0
 10
-1183.155510195228
 20
2146.531071188971
 30
0.0
 10
-1183.168327032652
 20
2146.013730914882
 30
0.0
 10
-1183.193960779044
 20
2144.979047478941
 30
0.0
 10
-1183.168327080348
 20
2143.944629866622
 30
0.0
 10
-1183.155510195228
 20
2143.427419616952
 30
0.0
  0
SPLINE
  5
3D2
330
1F
100
AcDbEntity
  8
0
  6
Continuous
 62
     7
370
    15
100
AcDbSpline
210
0.0
220
0.0
230
1.0
 70
     8
 71
     3
 72
     9
 73
     5
 74
     0
 42
0.000000001
 43
0.00000001
 40
0.0
 40
0.0
 40
0.0
 40
0.0
 40
0.5000138195353059
 40
1.0
 40
1.0
 40
1.0
 40
1.0
 10
-1183.155510195228
 20
2148.435675912648
 30
0.0
 10
-1183.16832729267
 20
2148.11863821489
 30
0.0
 10
-1183.19396077907
 20
2147.484580344144
 30
0.0
 10
-1183.168326820342
 20
2146.848901717506
 30
0.0
 10
-1183.155510195228
 20
2146.531071188971
 30
0.0
  0
LINE
  5
3D3
330
1F
100
AcDbEntity
  8
0
  6
Continuous
 62
     7
370
    15
100
AcDbLine
 10
-1183.1627335331
 20
2148.2669959321
 30
0.0
 11
-1183.1555101952
 21
2148.4356759126
 31
0.0
  0
LINE
  5
3D4
330
1F
100
AcDbEntity
  8
0
  6
Continuous
 62
     7
370
    15
100
AcDbLine
 10
-1180.3117614171
 20
2140.7986887741
 30
0.0
 11
-1180.3117614171
 21
2165.3320238936
 31
0.0
  0
LINE
  5
3D5
330
1F
100
AcDbEntity
  8
0
  6
Continuous
 62
     7
370
    15
100
AcDbLine
 10
-1180.3117614171
 20
2125.3320247877
 30
0.0
 11
-1180.3117614171
 21
2140.7986887741
 31
0.0
  0
LINE
  5
3D6
330
1F
100
AcDbEntity
  8
0
  6
Continuous
 62
     7
370
    15
100
AcDbLine
 10
-1172.3117638311
 20
2140.7986887741
 30
0.0
 11
-1172.3117638311
 21
2165.3320238936
 31
0.0
  0
LINE
  5
3D7
330
1F
100
AcDbEntity
  8
0
  6
Continuous
 62
     7
370
    15
100
AcDbLine
 10
-1172.3117638311
 20
2125.3320247877
 30
0.0
 11
-1172.3117638311
 21
2140.7986887741
 31
0.0
  0
LINE
  5
3D8
330
1F
100
AcDbEntity
  8
0
  6
Continuous
 62
     7
370
    15
100
AcDbLine
 10
-1141.511763998
 20
2145.3320243406
 30
0.0
 11
-1141.511763998
 21
2161.3320251006
 31
0.0
  0
LINE
  5
3D9
330
1F
100
AcDbEntity
  8
0
  6
Continuous
 62
     7
370
    15
100
AcDbLine
 10
-1141.511763998
 20
2129.3320235807
 30
0.0
 11
-1141.511763998
 21
2145.3320243406
 31
0.0
  0
LINE
  5
3DA
330
1F
100
AcDbEntity
  8
0
  6
Continuous
 62
     7
370
    15
100
AcDbLine
 10
-1139.7117633304
 20
2145.3320243406
 30
0.0
 11
-1139.7117633304
 21
2131.1320242482
 31
0.0
  0
LINE
  5
3DB
330
1F
100
AcDbEntity
  8
0
  6
Continuous
 62
     7
370
    15
100
AcDbLine
 10
-1139.7117633304
 20
2159.532024433
 30
0.0
 11
-1139.7117633304
 21
2145.3320243406
 31
0.0
  0
LINE
  5
3DC
330
1F
100
AcDbEntity
  8
0
  6
Continuous
 62
     7
370
    15
100
AcDbLine
 10
-1143.1117631427
 20
2145.3320243406
 30
0.0
 11
-1143.4823382578
 21
2142.7713999535
 31
0.0
  0
LWPOLYLINE
  5
3DD
330
1F
100
AcDbEntity
  8
0
  6
Continuous
 62
     7
370
    15
100
AcDbPolyline
 90
       17
 70
   128
 43
0.0
 10
-1168.1829500875
 20
2145.1047294929
 10
-1168.1867349825
 20
2147.1026453898
 10
-1167.3090528629
 20
2150.2577638264
 10
-1165.5895110151
 20
2153.1544336128
 10
-1162.7390790662
 20
2155.7903633463
 10
-1161.0645946047
 20
2156.738477667
 10
-1159.2141050777
 20
2157.4354776192
 10
-1156.4519140801
 20
2157.910266799
 10
-1153.5870578072
 20
2157.7515908527
 10
-1150.4255305907
 20
2156.7694953653
 10
-1148.4420519254
 20
2155.623695721
 10
-1146.711831533
 20
2154.150256795
 10
-1145.234468945
 20
2152.3288045089
 10
-1144.0913878313
 20
2150.2030500221
 10
-1143.2061973891
 20
2146.8717679625
 10
-1143.1117631427
 20
2145.3320243406
 10
-1143.1117631427
 20
2145.3320243406
  0
LINE
  5
3DE
330
1F
100
AcDbEntity
  8
0
  6
Continuous
 62
     7
370
    15
100
AcDbLine
 10
-1121.211763092
 20
2146.5519913715
 30
0.0
 11
-1121.211763092
 21
2175.3320236701
 31
0.0
  0
LINE
  5
3DF
330
1F
100
AcDbEntity
  8
0
  6
Continuous
 62
     7
370
    15
100
AcDbLine
 10
-1121.211763092
 20
2115.3320250112
 30
0.0
 11
-1121.211763092
 21
2146.5519913715
 31
0.0
  0
LINE
  5
3E0
330
1F
100
AcDbEntity
  8
0
  6
Continuous
 62
     7
370
    15
100
AcDbLine
 10
-1123.211763187
 20
2146.5519913715
 30
0.0
 11
-1123.211763187
 21
2115.3320250112
 31
0.0
  0
LINE
  5
3E1
330
1F
100
AcDbEntity
  8
0
  6
Continuous
 62
     7
370
    15
100
AcDbLine
 10
-1123.211763187
 20
2175.3320236701
 30
0.0
 11
-1123.211763187
 21
2146.5519913715
 31
0.0
  0
LINE
  5
3E2
330
1F
100
AcDbEntity
  8
0
  6
Continuous
 62
     7
370
    15
100
AcDbLine
 10
-1125.211763282
 20
2145.9420078561
 30
0.0
 11
-1125.211763282
 21
2160.3320240054
 31
0.0
  0
LINE
  5
3E3
330
1F
100
AcDbEntity
  8
0
  6
Continuous
 62
     7
370
    15
100
AcDbLine
 10
-1125.211763282
 20
2130.3320246759
 30
0.0
 11
-1125.211763282
 21
2145.9420078561
 31
0.0
  0
LINE
  5
3E4
330
1F
100
AcDbEntity
  8
0
  6
Continuous
 62
     8
370
    15
100
AcDbLine
 10
-1149.2117639563
 20
2143.6798039601
 30
0.0
 11
-1149.2117639563
 21
2152.7820242579
 31
0.0
  0
LINE
  5
3E5
330
1F
100
AcDbEntity
  8
0
  6
Continuous
 62
     8
370
    15
100
AcDbLine
 10
-1149.2117639563
 20
2137.8820244233
 30
0.0
 11
-1149.2117639563
 21
2143.6798039601
 31
0.0
  0
LINE
  5
3E6
330
1F
100
AcDbEntity
  8
0
  6
Continuous
 62
     8
370
    15
100
AcDbLine
 10
-1143.3817628703
 20
2168.832023536
 30
0.0
 11
-1143.3817628703
 21
2198.8320247281
 31
0.0
  0
LINE
  5
3E7
330
1F
100
AcDbEntity
  8
0
  6
Continuous
 62
     8
370
    15
100
AcDbLine
 10
-1144.5117626271
 20
2186.9833664048
 30
0.0
 11
-1144.5117626271
 21
2168.832023536
 31
0.0
  0
LINE
  5
3E8
330
1F
100
AcDbEntity
  8
0
  6
Continuous
 62
     8
370
    15
100
AcDbLine
 10
-1144.5117626271
 20
2198.8320247281
 30
0.0
 11
-1144.5117626271
 21
2186.9833664048
 31
0.0
  0
LINE
  5
3E9
330
1F
100
AcDbEntity
  8
0
  6
Continuous
 62
     8
370
    15
100
AcDbLine
 10
-1143.1843522868
 20
2198.6641072679
 30
0.0
 11
-1143.1843522868
 21
2168.9999428588
 31
0.0
  0
LINE
  5
3EA
330
1F
100
AcDbEntity
  8
0
  6
Continuous
 62
     8
370
    15
100
AcDbLine
 10
-1144.9117638102
 20
2185.8803973544
 30
0.0
 11
-1144.9117638102
 21
2193.5820252645
 31
0.0
  0
LINE
  5
3EB
330
1F
100
AcDbEntity
  8
0
  6
Continuous
 62
     8
370
    15
100
AcDbLine
 10
-1144.9117638102
 20
2174.0820248622
 30
0.0
 11
-1144.9117638102
 21
2185.8803973544
 31
0.0
  0
LINE
  5
3EC
330
1F
100
AcDbEntity
  8
0
  6
Continuous
 62
     8
370
    15
100
AcDbLine
 10
-1180.0433766029
 20
2196.332023387
 30
0.0
 11
-1180.0433766029
 21
2171.3320248771
 31
0.0
  0
LINE
  5
3ED
330
1F
100
AcDbEntity
  8
0
  6
Continuous
 62
     8
370
    15
100
AcDbLine
 10
-1180.240474262
 20
2171.4980890054
 30
0.0
 11
-1180.240474262
 21
2196.1659611213
 31
0.0
  0
LINE
  5
3EE
330
1F
100
AcDbEntity
  8
0
  6
Continuous
 62
     8
370
    15
100
AcDbLine
 10
-1181.839175143
 20
2130.4999430674
 30
0.0
 11
-1181.839175143
 21
2160.1641056138
 31
0.0
  0
LINE
  5
3EF
330
1F
100
AcDbEntity
  8
0
  6
Continuous
 62
     8
370
    15
100
AcDbLine
 10
-1181.6417645595
 20
2160.3320240054
 30
0.0
 11
-1181.6417645595
 21
2130.3320246759
 31
0.0
  0
ENDSEC
  0
SECTION
  2
OBJECTS
  0
DICTIONARY
  5
C
330
0
100
AcDbDictionary
281
     1
  3
ACAD_GROUP
350
D
  3
ACAD_LAYOUT
350
1A
  3
ACAD_MLINESTYLE
350
17
  3
ACAD_PLOTSETTINGS
350
19
  3
ACAD_PLOTSTYLENAME
350
E
  3
ACAD_SCALELIST
350
47
  0
DICTIONARY
  5
D
102
{ACAD_REACTORS
330
C
102
}
330
C
100
AcDbDictionary
281
     1
  0
DICTIONARY
  5
1A
102
{ACAD_REACTORS
330
C
102
}
330
C
100
AcDbDictionary
281
     1
  3
Layout1
350
1E
  3
Layout2
350
26
  3
Model
350
22
  0
DICTIONARY
  5
17
102
{ACAD_REACTORS
330
C
102
}
330
C
100
AcDbDictionary
281
     1
  3
Standard
350
18
  0
DICTIONARY
  5
19
102
{ACAD_REACTORS
330
C
102
}
330
C
100
AcDbDictionary
281
     1
  0
ACDBDICTIONARYWDFLT
  5
E
102
{ACAD_REACTORS
330
C
102
}
330
C
100
AcDbDictionary
281
     1
  3
Normal
350
F
100
AcDbDictionaryWithDefault
340
F
  0
DICTIONARY
  5
47
102
{ACAD_REACTORS
330
C
102
}
330
C
100
AcDbDictionary
281
     1
  3
A0
350
48
  3
A1
350
49
  3
A2
350
4A
  3
A3
350
4B
  3
A4
350
4C
  3
A5
350
4D
  3
A6
350
4E
  3
A7
350
4F
  3
A8
350
50
  3
A9
350
51
  3
B0
350
52
  3
B1
350
53
  3
B2
350
54
  3
B3
350
55
  3
B4
350
56
  3
B5
350
57
  3
B6
350
58
  3
B7
350
59
  3
B8
350
5A
  3
B9
350
5B
  3
C0
350
5C
  3
C1
350
5D
  3
C2
350
5E
  3
C3
350
5F
  3
C4
350
60
  3
C5
350
61
  3
C6
350
62
  3
C7
350
63
  3
C8
350
64
  3
C9
350
65
  3
D0
350
66
  3
D1
350
67
  3
D2
350
68
  0
LAYOUT
  5
1E
102
{ACAD_REACTORS
330
1A
102
}
330
1A
100
AcDbPlotSettings
  1

  2
none_device
  4

  6

 40
0.0
 41
0.0
 42
0.0
 43
0.0
 44
0.0
 45
0.0
 46
0.0
 47
0.0
 48
0.0
 49
0.0
140
0.0
141
0.0
142
1.0
143
1.0
 70
   688
 72
     1
 73
     0
 74
     5
  7

 75
    16
147
1.0
148
0.0
149
0.0
100
AcDbLayout
  1
Layout1
 70
     1
 71
     1
 10
0.0
 20
0.0
 11
420.0
 21
297.0
 12
0.0
 22
0.0
 32
0.0
 14
1.0000000000E+20
 24
1.0000000000E+20
 34
1.0000000000E+20
 15
-1.0000000000E+20
 25
-1.0000000000E+20
 35
-1.0000000000E+20
146
0.0
 13
0.0
 23
0.0
 33
0.0
 16
1.0
 26
0.0
 36
0.0
 17
0.0
 27
1.0
 37
0.0
 76
     0
330
1B
  0
LAYOUT
  5
26
102
{ACAD_REACTORS
330
1A
102
}
330
1A
100
AcDbPlotSettings
  1

  2
none_device
  4

  6

 40
0.0
 41
0.0
 42
0.0
 43
0.0
 44
0.0
 45
0.0
 46
0.0
 47
0.0
 48
0.0
 49
0.0
140
0.0
141
0.0
142
1.0
143
1.0
 70
   688
 72
     1
 73
     0
 74
     5
  7

 75
    16
147
1.0
148
0.0
149
0.0
100
AcDbLayout
  1
Layout2
 70
     1
 71
     2
 10
0.0
 20
0.0
 11
0.0
 21
0.0
 12
0.0
 22
0.0
 32
0.0
 14
0.0
 24
0.0
 34
0.0
 15
0.0
 25
0.0
 35
0.0
146
0.0
 13
0.0
 23
0.0
 33
0.0
 16
1.0
 26
0.0
 36
0.0
 17
0.0
 27
1.0
 37
0.0
 76
     0
330
23
  0
LAYOUT
  5
22
102
{ACAD_REACTORS
330
1A
102
}
330
1A
100
AcDbPlotSettings
  1

  2
none_device
  4
Letter_(8.50_x_11.00_Inches)
  6

 40
6.35
 41
6.35
 42
6.35000508
 43
6.35000508
 44
215.9
 45
279.4
 46
0.0
 47
0.0
 48
0.0
 49
0.0
140
0.0
141
0.0
142
1.0
143
1.0
 70
  1712
 72
     1
 73
     0
 74
     0
  7

 75
     0
147
1.0
148
0.0
149
0.0
100
AcDbLayout
  1
Model
 70
     1
 71
     0
 10
0.0
 20
0.0
 11
431.8
 21
279.4
 12
0.0
 22
0.0
 32
0.0
 14
0.0
 24
0.0
 34
0.0
 15
431.8
 25
279.4
 35
0.0
146
0.0
 13
0.0
 23
0.0
 33
0.0
 16
1.0
 26
0.0
 36
0.0
 17
0.0
 27
1.0
 37
0.0
 76
     0
330
1F
331
29
  0
MLINESTYLE
  5
18
102
{ACAD_REACTORS
330
17
102
}
330
17
100
AcDbMlineStyle
  2
Standard
 70
     0
  3

 62
   256
 51
90.0
 52
90.0
 71
     2
 49
0.5
 62
   256
  6
BYLAYER
 49
-0.5
 62
   256
  6
BYLAYER
  0
ACDBPLACEHOLDER
  5
F
102
{ACAD_REACTORS
330
E
102
}
330
E
  0
SCALE
  5
48
102
{ACAD_REACTORS
330
47
102
}
330
47
100
AcDbScale
 70
     0
300
1:1
140
1.0
141
1.0
290
     1
  0
SCALE
  5
49
102
{ACAD_REACTORS
330
47
102
}
330
47
100
AcDbScale
 70
     0
300
1:2
140
1.0
141
2.0
290
     0
  0
SCALE
  5
4A
102
{ACAD_REACTORS
330
47
102
}
330
47
100
AcDbScale
 70
     0
300
1:4
140
1.0
141
4.0
290
     0
  0
SCALE
  5
4B
102
{ACAD_REACTORS
330
47
102
}
330
47
100
AcDbScale
 70
     0
300
1:5
140
1.0
141
5.0
290
     0
  0
SCALE
  5
4C
102
{ACAD_REACTORS
330
47
102
}
330
47
100
AcDbScale
 70
     0
300
1:8
140
1.0
141
8.0
290
     0
  0
SCALE
  5
4D
102
{ACAD_REACTORS
330
47
102
}
330
47
100
AcDbScale
 70
     0
300
1:10
140
1.0
141
10.0
290
     0
  0
SCALE
  5
4E
102
{ACAD_REACTORS
330
47
102
}
330
47
100
AcDbScale
 70
     0
300
1:16
140
1.0
141
16.0
290
     0
  0
SCALE
  5
4F
102
{ACAD_REACTORS
330
47
102
}
330
47
100
AcDbScale
 70
     0
300
1:20
140
1.0
141
20.0
290
     0
  0
SCALE
  5
50
102
{ACAD_REACTORS
330
47
102
}
330
47
100
AcDbScale
 70
     0
300
1:30
140
1.0
141
30.0
290
     0
  0
SCALE
  5
51
102
{ACAD_REACTORS
330
47
102
}
330
47
100
AcDbScale
 70
     0
300
1:40
140
1.0
141
40.0
290
     0
  0
SCALE
  5
52
102
{ACAD_REACTORS
330
47
102
}
330
47
100
AcDbScale
 70
     0
300
1:50
140
1.0
141
50.0
290
     0
  0
SCALE
  5
53
102
{ACAD_REACTORS
330
47
102
}
330
47
100
AcDbScale
 70
     0
300
1:100
140
1.0
141
100.0
290
     0
  0
SCALE
  5
54
102
{ACAD_REACTORS
330
47
102
}
330
47
100
AcDbScale
 70
     0
300
2:1
140
2.0
141
1.0
290
     0
  0
SCALE
  5
55
102
{ACAD_REACTORS
330
47
102
}
330
47
100
AcDbScale
 70
     0
300
4:1
140
4.0
141
1.0
290
     0
  0
SCALE
  5
56
102
{ACAD_REACTORS
330
47
102
}
330
47
100
AcDbScale
 70
     0
300
8:1
140
8.0
141
1.0
290
     0
  0
SCALE
  5
57
102
{ACAD_REACTORS
330
47
102
}
330
47
100
AcDbScale
 70
     0
300
10:1
140
10.0
141
1.0
290
     0
  0
SCALE
  5
58
102
{ACAD_REACTORS
330
47
102
}
330
47
100
AcDbScale
 70
     0
300
100:1
140
100.0
141
1.0
290
     0
  0
SCALE
  5
59
102
{ACAD_REACTORS
330
47
102
}
330
47
100
AcDbScale
 70
     0
300
1/128" = 1'-0"
140
0.0078125
141
12.0
290
     0
  0
SCALE
  5
5A
102
{ACAD_REACTORS
330
47
102
}
330
47
100
AcDbScale
 70
     0
300
1/64" = 1'-0"
140
0.015625
141
12.0
290
     0
  0
SCALE
  5
5B
102
{ACAD_REACTORS
330
47
102
}
330
47
100
AcDbScale
 70
     0
300
1/32" = 1'-0"
140
0.03125
141
12.0
290
     0
  0
SCALE
  5
5C
102
{ACAD_REACTORS
330
47
102
}
330
47
100
AcDbScale
 70
     0
300
1/16" = 1'-0"
140
0.0625
141
12.0
290
     0
  0
SCALE
  5
5D
102
{ACAD_REACTORS
330
47
102
}
330
47
100
AcDbScale
 70
     0
300
3/32" = 1'-0"
140
0.09375
141
12.0
290
     0
  0
SCALE
  5
5E
102
{ACAD_REACTORS
330
47
102
}
330
47
100
AcDbScale
 70
     0
300
1/8" = 1'-0"
140
0.125
141
12.0
290
     0
  0
SCALE
  5
5F
102
{ACAD_REACTORS
330
47
102
}
330
47
100
AcDbScale
 70
     0
300
3/16" = 1'-0"
140
0.1875
141
12.0
290
     0
  0
SCALE
  5
60
102
{ACAD_REACTORS
330
47
102
}
330
47
100
AcDbScale
 70
     0
300
1/4" = 1'-0"
140
0.25
141
12.0
290
     0
  0
SCALE
  5
61
102
{ACAD_REACTORS
330
47
102
}
330
47
100
AcDbScale
 70
     0
300
3/8" = 1'-0"
140
0.375
141
12.0
290
     0
  0
SCALE
  5
62
102
{ACAD_REACTORS
330
47
102
}
330
47
100
AcDbScale
 70
     0
300
1/2" = 1'-0"
140
0.5
141
12.0
290
     0
  0
SCALE
  5
63
102
{ACAD_REACTORS
330
47
102
}
330
47
100
AcDbScale
 70
     0
300
3/4" = 1'-0"
140
0.75
141
12.0
290
     0
  0
SCALE
  5
64
102
{ACAD_REACTORS
330
47
102
}
330
47
100
AcDbScale
 70
     0
300
1" = 1'-0"
140
1.0
141
12.0
290
     0
  0
SCALE
  5
65
102
{ACAD_REACTORS
330
47
102
}
330
47
100
AcDbScale
 70
     0
300
1-1/2" = 1'-0"
140
1.5
141
12.0
290
     0
  0
SCALE
  5
66
102
{ACAD_REACTORS
330
47
102
}
330
47
100
AcDbScale
 70
     0
300
3" = 1'-0"
140
3.0
141
12.0
290
     0
  0
SCALE
  5
67
102
{ACAD_REACTORS
330
47
102
}
330
47
100
AcDbScale
 70
     0
300
6" = 1'-0"
140
6.0
141
12.0
290
     0
  0
SCALE
  5
68
102
{ACAD_REACTORS
330
47
102
}
330
47
100
AcDbScale
 70
     0
300
1'-0" = 1'-0"
140
12.0
141
12.0
290
     0
  0
ENDSEC
  0
EOF
